Third Strike - No Light Chords & Tabs

 

No Light Chords & Tabs

Third Strike Chords & Tabs

Version: 4 Type: Tab 0 ratings
1 star 2 stars 3 stars 4 stars 5 stars
comments

No Light Tab

Artist- Third Strike
Song- No light
Tabber- Iconoclast
Tuning- Drop D (DADGBE)

Intro/Chorus
---------------------------------------------
---------------------------------------------
---------------------------------------------
-0-4-6-6-6-6-6-6-6-0-5-7-7-7-7-7-7-7---------
-0-4-4-4-4-4-4-4-4-0-5-5-5-5-5-5-5-5---------
-0-4-4-4-4-4-4-4-4-0-5-5-5-5-5-5-5-5---------

Between intro and first verse (0:20) 
----------------------------
----------------------------
----------------------------
-6---6----------------------
-4---4----------------------
-4---4----------------------

Verse
------------------------------------
---5-------5-------5-------5--------
---6-6-----6-6-----6-6-----6-6------
-4-----4-4-----4-0-----4-0-----4----
-4-------4-------0-------0----------
-4-------4-------0-------0----------
[ Tab from: http://www.guitartabs.cc/tabs/t/third_strike/no_light_tab_ver_4.html ]
Bridge part 1
------------------------------
------------------------------
------------------------------
------------------------------
------------------------------
-4-4-4-4-4-5-7--4-5--2-4-0----

Bridge part 2
---------------------------------------
---------------------------------------
---------------------------------------
-4-4-4-4-4-5-7--4-5--2-4-0-------------
-4-4-4-4-4-5-7--4-5--2-4-0-------------
-4-4-4-4-4-5-7--4-5--2-4-0-------------

Bridge part 3
----------------------------
----------------------------
----------------------------
-4-0-4-0-7-2-2-5-5----------
-4-0-4-0-7-2-2-5-5----------
-4-0-4-0-7-2-2-5-5----------

After bridge (3:00)
----------------------------
----------------------------
----------------------------
-6-6-0-0--------------------
-4-4-0-0--------------------
-4-4-0-0--------------------

Song ends with this
----------------------------
----------------------------
----------------------------
-4-4-4-4-4-5-7-0------------
-4-4-4-4-4-5-7-0------------
-4-4-4-4-4-5-7-0------------

This song rocks- havin fun rockin with it.

Comments