Third Strike - No Light Chords & Tabs

 

No Light Chords & Tabs

Third Strike Chords & Tabs

Version: 3 Type: Tab 0 ratings
1 star 2 stars 3 stars 4 stars 5 stars
comments

No Light Tab

Artist: 3rd Strike
Song: No Light
Tuning: Drop D(low to high DADGBE)
Tabbed By: Keanan Brackenridge  {Xtinction}

This song is awsome!!
#Intro
E| ----------------------------------------
B| ----------------------------------------
G| -----6-6-6-6-----7-7-7-7----------------
D| -0-4-6-6-6-6-0-4-7-7-7-7----------------                
A| -0-4-4-4-4-4-0-4-5-5-5-5----------------
D| -0-4---------0-4-----------------------x4

#Verse

#Chorus

E| ------------------------------------------------
B| ------------------------------------------------
G| --------------6-6-6-6-----7-7-7-7---------------
D| -0-0------0-4-6-6-6-6-0-4-7-7-7-7---------------
A| -0-0------0-4-4-4-4-4-0-4-5-5-5-5---------------
D| -0-0------0-4---------0-4-----------------------x4
     ^ do this only when u go from the verse into chorus
listen to the song and u will know what i mean

*when chorus ends it goes 
E| ---------------------------------
B| ---------------------------------
G| -----6-6-6-6---------------------
D| -0-4-6-6-6-6-0-4-0-0-0-0---------
A| -0-4-4-4-4-4-0-4-0-0-0-0---------
D| -0-4---------0-4-0-0-0-0---------

#Verse

#Chorus       x4
[ Tab from: http://www.guitartabs.cc/tabs/t/third_strike/no_light_tab_ver_3.html ]
#Bridge 1
E|  -----------------------------------
B|  -----------------------------------
G|  -----------------------------------
D|  -----------------------------------
A|  -----------------------------------
D|  -4-4-4-4-4-4-7-5-5-4-4------x3-----

ends with   D|----4-4-4-4-4-4-7--------

#Bridge 2
E|  ---------------------------------
B|  ---------------------------------
G|  ---------------------------------
D|  -4-4-4-4-4-4-7-5-5-4-4-----------              
A|  -4-4-4-4-4-4-7-5-5-4-4-----------
D|  -4-4-4-4-4-4-7-5-5-4-4-----------x8
 
#Bridge 3
E|  --------------------------------
B|  --------------------------------
G|  --------------------------------
D|  -4-0-4-0-7-2-2-5-5--------------                  
A|  -4-0-4-0-7-2-2-5-5--------------
D|  -4-0-4-0-7-2-2-5-5--------------x4

#Silent part 
he sings "lets go and fly away tomorrow.......

#Chorus        x4

#Bridge 2      x4

#Bridge 3      x3

Ending
E|  ----------------
B|  ----------------
G|  ----------------
D|  -4-4-4-4-7-0----
A|  -4-4-4-4-7-0----
D|  -4-4-4-4-7-0----

Intro       x4
Verse
Chorus      x4
Verse 
Chorus      x4
Bridge      x4
Bridge 2    x8
Bridge 3    x4
Silent pt.
Chorus      x4
Bridge 2    x4
Bridge 3    x3
Ending

I dont know how they play the verse part, which is actually mostly bass, with the 
guitar playing something quiet in the background. The whole song is mostly the 
intro/chorus part, with some parts using the bridge. I hope you like this tab, 
its my first tab and i think its pretty accurate.Thanks.
Comments