Third Strike - No Light Chords & Tabs

 

No Light Chords & Tabs

Third Strike Chords & Tabs

Version: 2 Type: Tab 0 ratings
1 star 2 stars 3 stars 4 stars 5 stars
comments

No Light Tab

"No Light" by: Third Strike
Tabbed by: Rob Marston (rob@leftatom.com)


Intro: 

e|----------|----------|
B|----------|----------|
G|------6---|------7---| X4
D|------6---|------7---|
A|----4-4---|----5-5---|
d|---4------|---5------|

e|-------|
B|-------|
G|---6---| X2
D|---6---|
A|---4---|
d|-------|


Verse:

e|----------------|    |---------------|
B|----------------|    |---------------|
G|------6---------| X2 |-----7---------| X2
D|--------6---6---|    |-------7---7---|
A|----4-----4-----|    |---5-----5-----|
d|----------------|    |---------------|

Keep repeating.

[ Tab from: http://www.guitartabs.cc/tabs/t/third_strike/no_light_tab_ver_2.html ]
Chorus: Same as the first part of the intro, keep repeating.


Bridge:

e|---------------*-----------------|
B|---------------------------------|
G|---------------------------------| 
D|---4-4-4-4-4-5-7---4-5---2-4h0---|
A|---------------------------------|    
d|---------------------------------|   

* end here on the last time last time.

e|-------------------------------------|
B|-------------------------------------|
G|-------------------------------------| 
D|---4-4-4-4-4-5-7---4-4-5---2-2-4h0---|
A|---4-4-4-4-4-5-7---4-4-5---2-2-4h0---|    
E|---4-4-4-4-4-5-7---4-4-5---2-2-4h0---|

Keep repeating. 


That's basically the whole song. Listen to the song itself for rhythm and timing!
Comments