Third Strike - Blind My Eyes Chords & Tabs

 

Blind My Eyes Chords & Tabs

Third Strike Chords & Tabs

Version: 1 Type: Bass Tab 0 ratings
1 star 2 stars 3 stars 4 stars 5 stars
comments

Blind My Eyes Bass Tab

   
band: third strike
song: blind my eyes
album: lost angel
tab: bass
tabber: sarah (ricketsx5@yahoo.com)
tunning: c,g,c,f

ok, you just have to listen to the song for the timings and stuff,
and there might be some variations in the song, but here are the basics!

verse/bridge:
f|--------------------
c|--------------------
g|--------------------
c|-0-00000--0-00000---
[ Tab from: http://www.guitartabs.cc/tabs/t/third_strike/blind_my_eyes_btab.html ]
chorus:
f|-----------------------------------
c|-----------------------------------
g|-----------------------------------
c|-1-11111-3-33333-5-55555-7-77777---

pre-chorus (on 2nd verse):
f|----------------------
c|----------------------
g|-1----1----1----1-----
c|---11---11---11---00--

+chorus+

+bridge+

+chorus+

outro:
f|--------------------
c|--------------------
g|--------------------
c|-0-00000--0-00000---(repeat)

f|-----------------|    |--------
c|-----------------|    |--------
g|-1----1----1-----|    |-1------
c|---11---11---11--|(2x)|---000--

          +end+
Comments