Third Rale - Out Of The Fog Chords & Tabs

 

Out Of The Fog Chords & Tabs

Third Rale Chords & Tabs

Version: 2 Type: Bass Tab 0 ratings
1 star 2 stars 3 stars 4 stars 5 stars
comments

Out Of The Fog Bass Tab

   
From:	haplo_4@hotmail.com
Sent:	14 July 1998 06:12 PM

Subject:	t/third_rale/out_of_the_fog.btab
Submitted and tabbed by: Haplo_4@hotmail.com

Third Rale Out of the Fog  As appears on: Aisle 5

----------------------------------------------------------------------

   B     A              D Major
G: ----------:-----------------:
D: ----------:-----------------:
A: 22== 00== : 22 222 000 0000 :
E: ----------:-----------------:


----------------------------------------------------------------------


--This is only on guitar, but it's sick to play instead of the above--
             (BB F# F#hG GpF# E F#, AA F# F#hG GpF# E F#)

[ Tab from: http://www.guitartabs.cc/tabs/t/third_rale/out_of_the_fog_btab_ver_2.html ]
G: ----------------------------------------------------------------4~:
D: --4=-4h5-5p4-2-4--4=-4h5-5p4-2-4---4=-4h5-5p4-2-4--4=-4h5-5p4-2---:
A: 22--------------00---------------22--------------00---------------:
E: ------------------------------------------------------------------:


----------------------------------------------------------------------

     B     G    F#
G: ----------------:
D: -------55-5-444-:
A: 22-222----------:
E: ----------------:


----------------------------------------------------------------------

    B    A G  A F#
G: ---------------:----------------
D: ---------------:----------------
A: 22-22-0------5-:-22-22-0------5=
E: -------33-32---:---------3=-2---


----------------------------------------------------------------------


G: -------------------------:
D: -------------------------:
A: ---9\5----5/7----7----2--:
E: 77-----33-----55---00----:


----------------------------------------------------------------------


G: -----------------
D: -----------------
A: 22-2-----00-0-222    outro
E: -----333---------


----------------------------------------------------------------------
Comments