Third Friday - The Song About An Old Band Chords & Tabs

 

The Song About An Old Band Chords & Tabs

Third Friday Chords & Tabs

Version: 1 Type: Tab 0 ratings
1 star 2 stars 3 stars 4 stars 5 stars
comments

The Song About An Old Band Tab

   
Title: "The Song About An Old Band"
Artist: Third Friday
Album: 2 Weaks Notice

this is a good song. real easy to learn.


verse: (pm)

G------------------------------------------------------
D-----------------------8-8-8-8-8-------10-10-10-10-10-
A-------8-8-8-8-8-6-6-6-----------8-8-8----------------
E-6-6-6------------------------------------------------

G-------------10---------------------------------------
D-------8-8-8----8-------------------------------------
A-6-6-6------------------------------------------------
E------------------------------------------------------


chorus:
[ Tab from: http://www.guitartabs.cc/tabs/t/third_friday/the_song_about_an_old_band_tab.html ]
G-----8-8-8-8-8-10-10-8-8-8-8-8------------------------
D-8-8-8-8-8-8-8-10-10-8-8-8-8-8------------------------
A-8-8-6-6-6-6-6-8--8--6-6-6-6-6------------------------
E-6-6--------------------------------------------------


interlude: (figure out the rhythm of the strum)

G-12-12-10-10-10-10-10-10-8-8-5-5-5-5-5---------------
D-12-12-10-10-10-10-10-10-8-8-5-5-5-5-5---------------
A-10-10-8--8--8--8--8--8--6-6-3-3-3-3-3---------------
E-----------------------------------------------------

"in my hands..."
G-10-10-10-10-10-10-10-10-10-10-10-10-10-10-10-10-10-10
D-10-10-10-10-10-10-10-10-10-10-10-10-10-10-10-10-10-10
A-8--8--8--8--8--8--8--8--8--8--8--8--8--8--8--8--8--8-

G-----8-8-8-8-8-12-12-10-10-10-10-10---5----8----------
D-8-8-8-8-8-8-8-12-12-10-10-10-10-10---5----8----------
A-8-8-6-6-6-6-6-10-10--8--8--8--8--8---3----6----------
E-6-6--------------------------------------------------

you'll have to figure out by ear when to palm mute during the chorus.
Comments