Third Eye Blind - Slow Motion Chords & Tabs

 

Slow Motion Chords & Tabs

Third Eye Blind Chords & Tabs

Version: 3 Type: Tab 0 ratings
1 star 2 stars 3 stars 4 stars 5 stars
comments

Slow Motion Tab

   
Name: Desmond 

Tabs: Song: Slow Motion (Uncut Version)
Band: Third Eye Blind
Album: Blue

Here are the tabs for the song slow motion. I tabbed out the uncut 
version of this song. There may be some mistakes but this is as close I 
could tab from this song. Enjoy!

Chords:
D  -xx0232
A  -x03330
G  -320033
Em -022000
D5 -x577xx
A5 -5776xx
Em5-022xxx
G5 -355xxx

Intro:
   D                A            G     Em       
e--------3p2---0--------------------------0-------0-----------
B-----3------3---x------x-x-x-------------------3----3--------
G----------------x----2-x-x-x----------4-----4----------------
D--0-------------x--2---x-x-x---------------------------------
A-----------------------------------0--2-----2-------5--------
E------------------------------0-3----------------------------

   D                A            G     Em       <.NH.><.NH.>
e--------3p2---0--------------------------0-------------------
B-----3------3---x------x-x-x---------------0-----------------
G----------------x----2-x-x-x----------4--------12----7-------
D--0-------------x--2---x-x-x-------------------12----7-------
A-----------------------------------0--2----------------------
E------------------------------0-3----------------------------

Verse 1:
D  A  G  Em (4X)

End of verse:
e---------
B-----3---
G---------
D---------
A--5--5---
E---------

Chorus: 
(I`m not really sure how the chords are palm muted, just try listening 
to the cd a few times and u`ll get it)
  D                  A              Em
e------------------------------------------------------------------
B------------------------------------------------------------------
G-7-x-x-7-x-x-7-x-x----------------------------------------------3-
D-7-x-x-7-x-x-7-x-x--x-x-7-x-x-x-x--2-x-x-2-x-x-x-x-x-2-x-x--------
A-5-x-x-x-x-x-x-x-x--x-x-7-x-x-x-x--2-x-x-2-x-x-x-x-x-0-x-x---5--5-
E--------------------x-x-5-x-x-x-x--0-x-x-0-x-x-x-x-x-0-x-x--------

  D                  A              Em           G  
e------------------------------------------------------------------
B------------------------------------------------------------------
G-7-x-x-7-x-x-7-x-x----------------------------------------------3-
D-7-x-x-7-x-x-7-x-x--x-x-7-x-x-x-x--2-x-x-2-x-x--5-x-x-5-x-x-------
A-5-x-x-x-x-x-x-x-x--x-x-7-x-x-x-x--2-x-x-2-x-x--5-x-x-5-x-x--5--5-
E--------------------x-x-5-x-x-x-x--0-x-x-0-x-x--3-x-x-3-x-x-------

  D                  A              Em                          
e------------------------------------------------0------0-----0----
B------------------------------------------------3----3-----3------
G-7-x-x-7-x-x-7-x-x------------------------------0--0-----0--------
D-7-x-x-7-x-x-7-x-x--x-x-7-x-x-x-x--2-x-x-2-x-x--2-----------------
A-5-x-x-x-x-x-x-x-x--x-x-7-x-x-x-x--2-x-x-2-x-x--2-----------------
E--------------------x-x-5-x-x-x-x--0-x-x-0-x-x--0-----------------

  <.NH.> 
e--------
B---7----
G---7----
D---7----
A--------
E--------

Verse 2: (Same as verse 1 only with a little bit of plucking from the 
intro)
Chorus:
  D                  A              Em
e------------------------------------------------------------------
B------------------------------------------------------------------
G-7-x-x-7-x-x-7-x-x----------------------------------------------3-
D-7-x-x-7-x-x-7-x-x--x-x-7-x-x-x-x--2-x-x-2-x-x-x-x-x-2-x-x--------
A-5-x-x-x-x-x-x-x-x--x-x-7-x-x-x-x--2-x-x-2-x-x-x-x-x-0-x-x---5--5-
E--------------------x-x-5-x-x-x-x--0-x-x-0-x-x-x-x-x-0-x-x--------

  D                  A              Em           G  
e------------------------------------------------------------------
B------------------------------------------------------------------
G-7-x-x-7-x-x-7-x-x----------------------------------------------3-
D-7-x-x-7-x-x-7-x-x--x-x-7-x-x-x-x--2-x-x-2-x-x--5-x-x-5-x-x-------
A-5-x-x-x-x-x-x-x-x--x-x-7-x-x-x-x--2-x-x-2-x-x--5-x-x-5-x-x--5--5-
E--------------------x-x-5-x-x-x-x--0-x-x-0-x-x--3-x-x-3-x-x-------

  D                  A              Em                          
e------------------------------------------------0------0-----0----
B------------------------------------------------3----3-----3------
G-7-x-x-7-x-x-7-x-x------------------------------0--0-----0--------
D-7-x-x-7-x-x-7-x-x--x-x-7-x-x-x-x--2-x-x-2-x-x--2-----------------
A-5-x-x-x-x-x-x-x-x--x-x-7-x-x-x-x--2-x-x-2-x-x--2-----------------
E--------------------x-x-5-x-x-x-x--0-x-x-0-x-x--0-----------------
[ Tab from: http://www.guitartabs.cc/tabs/t/third_eye_blind/slow_motion_tab_ver_3.html ]
Bridge:
   G    A    Bm      G
e--------------------------
B--------------------------
G--------------------------
D--5-5--7-7--4-4--4--5-5-x-
A--5-5--7-7--4-4--4--5-5-x-
E--3-3--5-5--2-2--2--3-3-x-

   G       A    Bm    
e----------------------------
B----------------------------
G----------------------------
D--5-5-x-x-7-7--4-4-x-4-4----
A--5-5-x-x-7-7--4-4-x-4-4----
E--3-3-x-x-5-5--2-2-x-2-2----

   G      A     Em5  
e-------------------------------------------
B-------------------------------------------
G-------------------------------------------
D--5-5-x--7-7-x-2-x-x-2-x-2-x-x-x-x-x-x-x-2-
A--5-5-x--7-7-x-2-x-x-2-x-2-x-x-x-x-x-x-x-2-
E--3-3-x--5-5-x-0-x-x-0-x-0-x-x-x-x-x-x-x-0-

G   A   Bm   A    Bm   A5

Verse 3:
   D                A            G     Em       
e--------3p2---0--------------------------0-------0-----------
B-----3------3---x------x-x-x-------------------3----3--------
G----------------x----2-x-x-x----------4-----4----------------
D--0-------------x--2---x-x-x---------------------------------
A-----------------------------------0--2-----2-------5--------
E------------------------------0-3----------------------------

   D                A            G     Em       
e--------3p2---0--------------------------0-------0-----------
B-----3------3---x------x-x-x-------------------3----3--------
G----------------x----2-x-x-x----------4-----4----------------
D--0-------------x--2---x-x-x---------------------------------
A-----------------------------------0--2-----2-------5--------
E------------------------------0-3----------------------------

   D                A            G       
e--------3p2---0-----------------3-------
B-----3------3---x------x-x-x----3------3-
G----------------x----2-x-x-x----4--------
D--0-------------x--2---x-x-x----5--------
A--------------------------------5---5--5-
E--------------------------------3--------

Chorus:
  D                  A              Em
e------------------------------------------------------------------
B------------------------------------------------------------------
G-7-x-x-7-x-x-7-x-x----------------------------------------------3-
D-7-x-x-7-x-x-7-x-x--x-x-7-x-x-x-x--2-x-x-2-x-x-x-x-x-2-x-x--------
A-5-x-x-x-x-x-x-x-x--x-x-7-x-x-x-x--2-x-x-2-x-x-x-x-x-0-x-x---5--5-
E--------------------x-x-5-x-x-x-x--0-x-x-0-x-x-x-x-x-0-x-x--------

  D                  A              Em           G  
e------------------------------------------------------------------
B------------------------------------------------------------------
G-7-x-x-7-x-x-7-x-x----------------------------------------------3-
D-7-x-x-7-x-x-7-x-x--x-x-7-x-x-x-x--2-x-x-2-x-x--5-x-x-5-x-x-------
A-5-x-x-x-x-x-x-x-x--x-x-7-x-x-x-x--2-x-x-2-x-x--5-x-x-5-x-x--5--5-
E--------------------x-x-5-x-x-x-x--0-x-x-0-x-x--3-x-x-3-x-x-------

  D                  A              Em                      G    D 
e----------------------------------------------------3------3-----
B------------------------------------------------------3----3-----
G-7-x-x-7-x-x-7-x-x--------------------------------0-----0--0-----
D-7-x-x-7-x-x-7-x-x--x-x-7-x-x-x-x--2-x-x-2-x-x--2----------------
A-5-x-x-x-x-x-x-x-x--x-x-7-x-x-x-x--2-x-x-2-x-x-------------------
E--------------------x-x-5-x-x-x-x--0-x-x-0-x-x-------------------


Lyrics: 
verse 1:
miss jones taught me english
but i think i just shot her son
cuz he owed me money with a bullet in the chest u cannot run
now he`s bleedin in a vacant larth
the one in the summer where we use to smoke pot
i guess i didn`t mean it
but man, he should have seen it
his flesh explode

chorus:
slow motion see me let go
we tend to die young
slow motion see me let go
what a brother knows
slow motion see me let go

verse 2:
now the cops will get me
but girl, if you would let me
i`ll take ur pants off
i got a little bit of blow we could both get off
later baby in the afterglow
two ounce of coca cut wif draino
and hunno starts to bleed
a most beautiful ruby red

rpt chorus

bridge:
and i don`t
my sister`s eating pain chips again
maybe that`s why she`s insane
i shut the door to hear her moaning
and i shoot smack in my veins
bullin u
see my neighbour`s beatin his wife
because it aints his life
there`s a knot to his fist as he sways
oh man wat a beautiful thing
and that`s like close to me
wont grow old to be
a junkie whino creep

verse 3:
hollywood glamouries my wrath
i`m the only urban physcopath
i inside murder, for your entertainment
cuz i needed the money
what`s your excuse? 
the joke`s on you

rpt chorus


Comments