Third Eye Blind - Semi Charmed Life Chords & Tabs

 

Semi Charmed Life Chords & Tabs

Third Eye Blind Chords & Tabs

Version: 1 Type: Tab 0 ratings
1 star 2 stars 3 stars 4 stars 5 stars
comments

Semi Charmed Life Tab

   
Song: Semi-Charmed Life
Band: Third Eye Blind

Chords: G 320022; D xx0232; Dsus xx0233; Cadd9 x32033
        G(type 2) xxx787

Legend:
/ (chord section) = strum
/ (tab section) = slide up
\ = slide down
~ = vibrato
h = hammer on
p = pull off
P.M. = Palm Mute


Intro/Chorus/Interlude:
G //// D /// Dsus / Cadd9 /// /// //

Interlude 2:
D ///////// G /////////

Verse 1:
(P.M) G(type 2) ///// D ///// Dsus / G(type 2)
[ Tab from: http://www.guitartabs.cc/tabs/t/third_eye_blind/semi_charmed_life_tab.html ]
Verse 2:
---------7-5---5-8-8----8---8--8--7-5----7--7-5----------3-3--3-3-
-------8-----8--------8---8-----------8---------8-5~~~~--3-3--3-3-
---4-7---------------------------------------------------0-0--0-0-
-5-------------------------------------------------------0-0--0-0-
---------------------------------------------------------2-2--2-2-
---------------------------------------------------------3-3--3-3-

-7-5---8-8---8--8--7-5----7--7--5-----5---------------------
-----8-----8-----------8----------8-5---8-------------------
------------------------------------------7-5-4h5p4-2/4\2---
----------------------------------------------------------5-
------------------------------------------------------------
------------------------------------------------------------

Slow Interlude:
-----3-----2-----0---0-
---------3-------------
---0-------------------
-------0-------5---5---
-------------3---------
-3---------------------

Outro:
---------------
---------------
-----0-----0---
---2-----0-----
-3-----2-----0-
---------------

I can't quite remember the rest but it's mainly just some
vibrato notes and maybe a G arpeggio.  If you have any musical
ear at all you can figure it out.
Comments