Third Eye Blind - Semi Charmed Life Chords & Tabs

 

Semi Charmed Life Chords & Tabs

Third Eye Blind Chords & Tabs

Version: 1 Type: Chords 3 ratings
1 star 2 stars 3 stars 4 stars 5 stars
comments

Semi Charmed Life Chords

   
Just a quick note on how to play this, song the chords are as follows...

      G chord        D chord         C/G (name??)
e-----3--------------2---------------3------------------
b-----3--------------3---------------3------------------
g-----0--------------2---------------0------------------
d-----0--------------0---------------2--------------------
a-----2--------------0---------------3------------------
e-----3--------------0---------------0------------------
[ Tab from: http://www.guitartabs.cc/tabs/t/third_eye_blind/semi_charmed_life_crd.html ]
The other parts of the song ar played w/ these chords...
   
   D chord            C chord
e-----2------------------0--------------------------
b-----3------------------1---------------------
g-----2------------------0-----------------------
d-----0------------------2-------------------------
a-----0------------------3--------------------------
e-----0------------------0----------------------------

Just look at these chords and start strummin', the song isnt difficult 
play or learn- it will  conme to you.

Brian- Bugly70@cs.com
Comments