Third Eye Blind - Never Let You Go Chords & Tabs

 

Never Let You Go Chords & Tabs

Third Eye Blind Chords & Tabs

Version: 9 Type: Tab 0 ratings
1 star 2 stars 3 stars 4 stars 5 stars
comments

Never Let You Go Tab

Third Eye Blind  -  Never Let You Go.
 Tabbed by Ben ,  white_hooligan@hotmail.com.
  
[ Tab from: http://www.guitartabs.cc/tabs/t/third_eye_blind/never_let_you_go_tab_ver_9.html ]
e---------------------------------------------------
B|------------------------------------|
G|---9--------------9-----------------|
D|---7--9--7-7------7--9--7-7-7-------|
A|---7--7--5-5------7--7--5-5-5-------|
E|------7--5-5---------7--5-5-5-------|

e|----------------------------------|
B|----------------------------------|
G|--11/13-9---------11/13-9---------|
D|----------11-11-----------11-11-9-|
A|----------------------------------|
E|----------------------------------| 
:: Ultimate Guitar Archive :: 
http://www.ultimate-guitar.com 

 
Comments