Third Eye Blind - Never Let You Go Chords & Tabs

 

Never Let You Go Chords & Tabs

Third Eye Blind Chords & Tabs

Version: 8 Type: Tab 0 ratings
1 star 2 stars 3 stars 4 stars 5 stars
comments

Never Let You Go Tab

3rd Eye Blind-Never Let You Go.
 Tabbed by Todd G-GetobOOtyy@aol.com.
  
Never Let You Go - 3rd Eye Blind
[ Tab from: http://www.guitartabs.cc/tabs/t/third_eye_blind/never_let_you_go_tab_ver_8.html ]
-----7-5-5---7-5-5-5----|---------------------------E
---7-9-7-7-7-9-7-7-7----|---------------------------A
---9-9-7-7-9-9-7-7-7----|----------11---------11-9--D
---9-------9------------|--9-11b-9----9-11b-9-------G
------------------------|---------------------------B
------------------------|---------------------------E
                                Lead Riff 2x
Verse: Repeat 7x
---7-5-5---7-5-5-5---------E
-7-9-7-7-7-9-7-7-7---------A
-9-9-7-7-9-9-7-7-7---------D
-9-------9-----------------G
---------------------------B
---------------------------E
There's every good reason...

Chorus: Repeat 3x
---7-7---------7---E
-7-9-9-12-12-7-9---A
-9-9-9-14-14-9-9---D
-9-----14-14-9-----G
-------------------B
-------------------E
I'll never let you turn around...

Lead riff 2x

Verse 2: Same as Verse 1
You say that I've changed....

Chorus

Lead riff 1x

---------------7-7-7-5-5-5-5--E
-7-7-7-6-6-6-6-9-9-9-7-7-7-7--A
-9-9-9-9-9-9-9-9-9-9-7-7-7-7--D
-9-9-9-9-9-9-9----------------G
------------------------------B
------------------------------E
Bridge: Repeat 6x
And all our friends...

Verse 3: Same as other verses
If there's a reason...

Chorus: 8x

Lead riff: 2x

Repeat verse 7x until end! 
:: Ultimate Guitar Archive :: 
http://www.ultimate-guitar.com 

 
Comments