Third Eye Blind - My Hit And Run Chords & Tabs

 

My Hit And Run Chords & Tabs

Third Eye Blind Chords & Tabs

Version: 1 Type: Tab 0 ratings
1 star 2 stars 3 stars 4 stars 5 stars
comments

My Hit And Run Tab

Here are some sections of this song, the cool parts anyway.  This is my first tab also

The chorus chords are G D A
[ Tab from: http://www.guitartabs.cc/tabs/t/third_eye_blind/my_hit_and_run_tab.html ]
This part is a fill section between the chorus and verse, easy and fun to play.  2nd 
I do a slide down from the 10th fret on the low E between the open G and D chords, although 
song may actually use power chords.
It's easier to pull off to open strings here.
e|--3-3-x-2-2---------------------------------------------------------------|
B|--3-3-x-3-3--------2---------------------------2--------------------------|
G|--0-0-x-2-2--2-4-2---2---2p0--------------1-1--2--------------------------|
D|--0-0------------------------4p2p0--------2-2--2--------------------------|
A|--2-2------------------------------4p2p0--2-2--0--------------------------|
E|--3-3-------------------------------------0-0-----------------------------|
Over the chorus A chord I do this because there are 2 guitars or more

e|--0-----0--0-------0------------------------------------------------------|
B|--2-3p2----2-3p2h3--------------------------------------------------------|
G|--2--------2--------------------------------------------------------------|
D|--2--------2--------------------------------------------------------------|
A|--0--------2--------------------------------------------------------------|
E|--------------------------------------------------------------------------|
The Verse chords sound like bar chords in standard A D G D form moved up to the tenth 
and they're not complicated, but It's getting late maybe I'll do them later.
Comments