Third Eye Blind - Motorcycle Drive By Chords & Tabs

 

Motorcycle Drive By Chords & Tabs

Third Eye Blind Chords & Tabs

Version: 1 Type: Bass Tab 0 ratings
1 star 2 stars 3 stars 4 stars 5 stars
comments

Motorcycle Drive By Bass Tab

   
Intro: (acoustic guitar only)

(guitar chords:) 
   C                               |  Fmaj7               
   1   +   2   +   3   +   4   +   |  1   +   2   +   3   +   4   +   |
G----------------------------------|----------------------------------|
D----------------------------------|----------------------------------|
A----------------------------------|----------------------------------|
E----------------------------------|----------------------------------|


Until the distortion, the bass part is very bouncy and
almost swung, so play around with timing.


   C                               |  C/G                      
                                   |  summertime...                   | 
   1   +   2   +   3   +   4   +   |  1   +   2   +   3   +   4   +   |
G----------------------------------|----------------------------------|
D----------------------------------|--------------3---2---0-------2---|
A--3-------------------------------|----------------------------------|
E----------------------------------|--3-------------------------------|


  A7sus                               (3/8 bar!!!)
  Chelsea...                          The sun...
   1   +   2   +   3   +   4   +   |  1   2   3   |
G----------------------------------|--------------|
D--------------2---3---2-----------|-(2)----------|
A--0-------------------------------|--------------|
E----------------------------------|--------------|


   G6                              |  Fmaj7 
   My eyes...                      |  Windows...
   1   +   2 e + a 3   +   4   +   |  1   +   2   +   3   +   4   +   |
G----------------------------------|----------------------------------|
D----------------5-----------------|--------------3-------------------|
A----------------------------------|----------------------------------|
E--3---------------3---------------|--1---------------1---------------|


   C                               |  Amin7 
   You...                          |  Have you...
   1   +   2   +   3   +   4   +   |  1   +   2   +   3   +   4 e + a |
G----------------------------------|----------------------------------|
D--------------2-------------------|----------------------2---------0-|
A--3---------------5---3-----------|--0-----------3---5---------------|
E----------------------------------|----------------------------------|


   G6                              |  Fmaj7 
   You did...                      |  Stupid...
   1   +   2 e + a 3   +   4   +   |  1   +   2   +   3   +   4   +   |
G----------------------------------|----------------------------------|
D----------------5-----------------|--------------3---3---------------|
A----------------------------------|----------------------------------|
E--3---------------3---------------|--1-------------------------------|


   C                               |  Amin7 
   Burning...                      |  Always been...
   1   +   2   +   3   +   4   +   |  1   +   2   +   3   +   4   +   |
G--5---4---2-----------------------|----------------------------------|
D--------------5---3---2-----------|----------------------------------|
A--------------------------5---3---|--0-----------3--/5--3-----------|
E----------------------------------|----------------------------------|



   G6sus                           |  Fmaj7 
   I've never been... so alone and |  I've...     never been so alive |
   1   +   2 e + a 3   +   4   +   |  1   +   2   +   3   +   4   +   |
G----------------------------------|----------------------------------|
D--------------5-3-----------------|--------------3---3---------------|
A----------------------------------|----------------------------------|
E--3---------------3---------------|--1-------------------------------|


   C                               |  Fmaj7 
                                   |                                  |
   1 e + a 2 e + a 3 e + a 4 e + a |  1 e + a 2 e + a 3   +   4   +   |
G----------------------------------|----------------------------------|
D--------------------------3-5-3---|--3---3-3---3-3-------------------|
A--3---3-3---3-3-----3-3-3-------3-|----------------------------------|
E----------------------------------|----------------------------------|



   C                               |  A7sus 
   Visions of you...               |  Cigarette...                    |
   1   +   2   +   3   +   4 e + a |  1   +   2   +   3   +   4 e + a |
G----------------------------------|----------------------------------|
D------------------3---2-----------|----------------------2---------2-|
A--3-----------3-------------------|--------------3---5---------------|
E--------------------------------3-|-/5-------------------------------|



   G6              Fmaj7           |  C 
   Smile...        And say...      |  Fit with you...                 |
   1   +   2 e + a 3 e + a 4 e + a |  1   +   2   +   3   +   4   +   |
G----------------------------------|------------------2---------------|
D--------------------------3-------|----------2---5-------5---3---2---|
A------------------------3---3-----|--3-------------------------------|
E--3---------3-5-3-1-----------1---|----------------------------------|



   Amin7                           |  G6              Fmaj7
         Careening...              |  Tilt...         Free...         |
   1   +   2   +   3   +   4   +   |  1 e + a 2 e + a 3   + e 4 e + a |
G----------------------------------|----------------------------------|
D----------------------------------|--------------------------3-------|
A--5---3---0-----------3-0-5---3---|--------0-2-5-0---------3----3----|
E----------------------------------|--3---------------1-----------1---|


(From here the pattern is swung a little bit
 listen to the song for the actual pattern.)

   C                               |  C 
   Me with you...                  |  Things...                       |
   1   +   2   +   3   +   4   +   |  1   +   2   +   3   +   4   +   |
G----------------------------------|----------------------------------|
D----------------------------------|------------------5---------------|
A--3---3-3---3-3-3-3---3-3---3-3---|--3---3-3-----3-------3-3-3-3-3---|
E---------------------------------3|------------3---3---------------3-|



   Amin7                           |  G6sus 
   Believe in...                   |  Build something...              |
   1   +   2   +   3   +   4   +   |  1   +   2   +   3   +   4   +   |
G----------------------------------|----------------------------------|
D------------------0---2-----------|----------------------------------|
A--0---0-0-0-0-3-0---------0---0-0-|--0-----0-------------------------|
E----------------------------------|----3-0---3---3-3---3-3-3-3---3-0-|



   Fmaj7                           |  C 
   Happen...                       |  Burning...                      |
   1   +   2   +   3   +   4   +   |  1   +   2   +   3   +   4   +   |
G----------------------------------|--5---4---2-----------------------|
D------------------3-3-3-3-3-------|--------------5---3---2-----------|
A----------------3-----------3-----|--------------------------5---3---|
E--1---1-1-1-1-1---------------1---|----------------------------------|





   A7sus                           |  G6 
   Always been...          and I've|  Never been so alone and I've... |
   1   +   2   +   3   +   4   +   |  1   +   2   +   3   +   4   +   |
G----------------------------------|----------------------------------|
D----------------------------------|----------------5-----------------|
A--0-----------3-0-5---3---0-3-3-0-|----------------------------------|
E----------------------------------|--3-3-3-3-3-3-3---3-3-3-3-3-3-3-3-|

[ Tab from: http://www.guitartabs.cc/tabs/t/third_eye_blind/motorcycle_drive_by_btab.html ]
                                      (Distortion enters)
   Fmaj7                           |  C/G 
          I've never been so alive!|                                  |
   1   +   2   +   3   +   4   +   |  1   +   2   +   3   +   4   +   |
G----------------------------------|----------------------------------|
D----------------------------------|----------------------------------|
A----------------------------------|--3-3-3-3-3-3-3-3-3-3-3-3-3-3-3-3-|
E--1-1-1-1-1-1-1-1-1-1-1-1-1-1-1-1-|----------------------------------|



   C/G                             |  Amin7 
                                   |                                  |
   1   +   2   +   3   +   4   +   |  1   +   2   +   3   +   4   +   |
G----------------------------------|----------------------------------|
D----------------------------------|----------------------------------|
A--3-3-3-3-3-3-3-3-3-3-3-3-3-3-3-3-|--0-0-0-0-0-0-0-0-0-0-0-0-0-0-0-0-|
E----------------------------------|----------------------------------|



   G6sus                           |  F 
                                   |                  And there's this|
   1   +   2   +   3   +   4   +   |  1   +   2   +   3   +   4   +   |
G----------------------------------|----------------------------------|
D----------------------------------|----------------------------------|
A----------------------------------|----------------------------------|
E--3-3-3-3-3-3-3-3-3-3-3-3-3-3-3-3-|--1-1-1-1-1-1-1-1-1-1-1-1-1-1-1-1-|



   Amin7                           |  F 
   Burning, uh huh... there is this|  Burrrrrrrning! Yeah! Yeah! Yeah!|
   1   +   2   +   3   +   4   +   |  1   +   2   +   3   +   4   +   |
G----------------------------------|----------------------------------|
D----------------------------------|----------------------------------|
A----------------------------------|----------------------------------|
E--5-5-5-5-5-5-5-5-5-5-5-5-5-5-5-5-|--1-1-1-1-1-1-1-1-1-1-1-1-1-1-1-1-|


   C/G                             |  C/G 
                                   |                                  |
   1   +   2   +   3   +   4   +   |  1   +   2   +   3   +   4   +   |
G----------------------------------|----------------------------------|
D----------------------------------|----------------------------------|
A--3-3-3-3-3-3-3-3-3-3-3-3-3-3-3-3-|--3-3-3-3-3-3-3-3-3-3-3-3-3-3-3-3-|
E----------------------------------|----------------------------------|


   C/G                             |  C/G 
   Where's the soul...             |  Evil...                         |
   1   +   2   +   3   +   4   +   |  1   +   2   +   3   +   4   +   |
G----------------------------------|----------------------------------|
D----------------------------------|----------------------------------|
A--3-3-3-3-3-3-3-3-3-3-3-3-3-3-3-3-|--3-3-3-3-3-3-3-3-3-3-3-3-3-3-3-3-|
E----------------------------------|----------------------------------|


   Amin7                           |  G6sus
   Do that...                      |  Through that...                 |
   1   +   2   +   3   +   4   +   |  1   +   2   +   3   +   4   +   |
G----------------------------------|----------------------------------|
D----------------------------------|----------------------------------|
A--0-0-0-0-0-0-0-0-0-0-0-0-0-0-0-0-|----------------------------------|
E----------------------------------|--3-3-3-3-3-3-3-3-3-3-3-3-3-3-3-3-|


   C/G                             |  Amin7 
   Last time...                    |  Friends again...                |
   1   +   2   +   3   +   4   +   |  1   +   2   +   3   +   4   +   |
G----------------------------------|----------------------------------|
D----------------------------------|----------------------------------|
A--3-3-3-3-3-3-3-3-3-3-3-3-3-3-3-3-|--0-0-0-0-0-0-0-0-0-0-0-0-0-0-0-0-|
E----------------------------------|----------------------------------|



   G6sus                           |  F 
   I'll get over you...            |  Who I am...                     |
   1   +   2   +   3   +   4   +   |  1   +   2   +   3   +   4   +   |
G----------------------------------|----------------------------------|
D----------------------------------|----------------------------------|
A----------------------------------|----------------------------------|
E--3-3-3-3-3-3-3-3-3-3-3-3-3-3-3-3-|--1-1-1-1-1-1-1-1-1-1-1-1-1-1-1-1-|



   C                               |  Amin7 
   Burning!                        |  Always been...              I've|
   1   +   2   +   3   +   4   +   |  1   +   2   +   3   +   4   +   |
G--5---4---2-----------------------|----------------------------------|
D--------------5---3---2-----------|----------------------------------|
A--------------------------5---3---|--0-0-0-0-0-0-0-0-0-0-0-0-0-0-0-0-|
E----------------------------------|----------------------------------|



   G6sus                           |  F 
 Never been so alone alone and I've and I've, I've never been so alive!      
   1   +   2   +   3   +   4   +   |  1   +   2   +   3   +   4   +   |
G----------------------------------|----------------------------------|
D----------------------------------|----------------------------------|
A----------------------------------|----------------------------------|
E--3-3-3-3-3-3-3-3-3-3-3-3-3-3-3-3-|--1-1-1-1-1-1-1-1-1---1---1---1---|



   C                               |  F 
                               So  |  Alive!                          |
   1   +   2   +   3   +   4   +   |  1   +   2   +   3   +   4   +   |
G----------------------------------|----------------------------------|
D----------------------------------|----------------------------------|
A----------------------------------|----------------------------------|
E----------------------------------|--------------------------------3-|



   C                               |  A7sus                      
   I go home...                    |  Out On the water...             | 
   1   +   2   +   3   +   4   +   |  1   +   2   +   3   +   4   +   |
G----------------------------------|----------------------------------|
D--------------------------------5-|-/7-----------5-------------------|
A--3-------------5/7---------------|----------------7-----------------|
E----------------------------------|------------------8--5---------3-|


   A7sus            G6sus          |  C                   
   Salt...          Thinking...    |      Summer dies...
   1   +   2   +   3   +   4   +   |  1   +   2   +   3   +   4   +   |
G----------------------------------|----------------------------------|
D------------0-2-----------------2-|----------------------------------|
A--0-------------------------------|--3-------------------------------|
E------------------3---------------|--------------------------------3-|



   A7sus                           |  G6sus 
   My eyes...        Darkly comming|                  To take me...
   1   +   2   +   3   +   4   +   |  1   +   2   +   3   +   4   +   |
G----------------------------------|----------------------------------|
D----------------------------------|----------------------------------|
A--0-------------------------------|----------------------------------|
E----------------------------------|--3-------------------------------|


   F                               | 
   Home...                         | *silence*                And I've
   1   +   2   +   3   +   4   +   |                                  |
G----------------------------------|----------------------------------|
D----------------------------------|----------------------------------|
A----------------------------------|----------------------------------|
E--1-------------------------------|----------------------------------|


   C                               |  Fmaj7 
   Never been so alone...      And |  I've...      Never been so alive|
   1   +   2   +   3   +   4   +   |  1   +   2   +   3   +   4   +   |
G----------------------------------|----------------------------------|
D----------------------------------|----------------------------------|
A--------------3-------------------|--------------3---3---------------|
E--3---------------3---------------|--1-------------------------------|
Comments