Third Eye Blind - Losing A Whole Year Chords & Tabs

 

Losing A Whole Year Chords & Tabs

Third Eye Blind Chords & Tabs

Version: 1 Type: Tab 0 ratings
1 star 2 stars 3 stars 4 stars 5 stars
comments

Losing A Whole Year Tab

intro:
e -------0---------0-----------0---------0-----
B -----h8-8------h3-3--------h7-10-----h7-10---
G -----7---7----2---2/9-----9----9----9----9--
D ----8---------3-----/10--10--------10--------
A ---7---------2--------------------9----------
E --7---------2--------------------9-----------
     


the bridge is A


solo:
[ Tab from: http://www.guitartabs.cc/tabs/t/third_eye_blind/losing_a_whole_year_tab.html ]
e ----0---------------------------------------------
B ------8---------------3---------------10----------
G -------7b.5b7-7--------2b.5b2-2-----------9b.5b9--
D ---8---------8--8h0--3-------3-3h0--10--10------10
A --------------------------------------------------
E 5/7-----------------2-------------/9--------------

e --------------------------------------------------
B -----------10-------------------------------------
G 9---------------9b.5b9--9-------------------------
D ---10h0--10---10------10--10---------------------
A --------------------------------------------------
E -------/9-----------------------------------------

Comments