Third Eye Blind - Jumper Chords & Tabs

 

Jumper Chords & Tabs

Third Eye Blind Chords & Tabs

Version: 1 Type: Tab 0 ratings
1 star 2 stars 3 stars 4 stars 5 stars
comments

Jumper Tab

   
Fun song :D

Fmaj7 C(hammer on 0h2 D string) G(hammer on 0h2 A string)

Am C G Am

Dadd11              C
[ Tab from: http://www.guitartabs.cc/tabs/t/third_eye_blind/jumper_tab.html ]
----------0------------------------0---
------3-----3----------------1---------
----0----------0-----------0----0------
--4--------------4------2--------------
-------------------5s3-----------------
---------------------------------------

Solo break

----------------------1p01-01p0----------
-1p0-1----1p01-3-----------------0-1h3-1-
------------------0----------------------
-----------------------------------------
-----------------------------------------
-----------------------------------------

E-mail me questions, comments, complaints, death threats, etc Aerochicka@hotmail.com
Comments