Third Eye Blind - Jumper Chords & Tabs

 

Jumper Chords & Tabs

Third Eye Blind Chords & Tabs

Version: 1 Type: Bass Tab 0 ratings
1 star 2 stars 3 stars 4 stars 5 stars
comments

Jumper Bass Tab

#-----------------------------------------------------------------------------#
#-- File created with Instab - http://www.pconline.com/~smcarey/instab.html --#
#-----------------------------------------------------------------------------#

Author/Artist: third eye blind
Title: jumper
Album: third eye blind
Transcribed by: justin
Email: hopenaveed@aol.com


it's just stephan and his guitar for a while
the bass enters when the drums enter
-----------|-------------|--------------|----------------|----|----|-----|----
-3--3------|-5555--------|----3-3-------|-5555-----------|----|----|-----|----
------3333-|------5------|---------3333-|------5555------|-0--|-3--|-----|----
-----------|--------3333-|-1------------|-----------3333-|----|----|-3---|(3)-
                                                                         

---|----|-------|---------|-------------|----|----|-----------|---------|-----
---|----|-------|-5---3h5-|------3h5----|----|----|-----------|.--3-----|-----
---|-0--|-3--3h5|---------|-------------|-0--|-5--|-3--3--3---|.----33--|-----
-3-|----|-------|---------|-3--------33-|----|----|-----------|-1-------|-3---


---------|---------|--------|-----------|---------|------------|---------|---|
--------.|---3-----|--------|-3/5-------|---------|-3h5--------|---------|---|
--------.|-----33--|--------|----3--3-3-|---------|-----3--3-3-|---------|-0-|
-3-0h3-3-|-1-------|-3-3-3--|-----------|-3-3-3-3-|------------|-3-3--3--|---|


------|---------|----------------|----|---------|--------|---------|----|----|
------|-----3h5-|-----3h5--3h5---|----|---------|-5------|---------|----|----|
-3---5|---------|----------------|-0--|-3---3h5-|------5-|-----5---|-0--|-5--|
------|-3-------|(3)-----------3-|----|---------|--------|-3-----3-|----|----|


-------5-|---------|----------|----------|----------|--------------|---------|
---------|---3-----|----------|---3------|----------|---3/5--------|---5--5--|
-3--3----|-----3-3-|----------|-----33-3-|----------|-------3-03-3-|---------|
-----3---|-1-------|-3--0h3-3-|-1--------|-3--x3x-3-|-1------------|-3-------|

[ Tab from: http://www.guitartabs.cc/tabs/t/third_eye_blind/jumper_btab.html ]
------------|------------|-----------|-----------------|----------|----------|
-3--3/5-----|------------|-3-3/5-----|-----------------|-3-33-----|----------|
-------3--3-|----------3-|-------3-3-|-------------3h5-|------3-3-|----------|
------------|-3-3-3-3h4--|-----------|-3-3-0h3-3h4-----|----------|-3--3-3-/-|


SOLO
he palm mutes some notes throughout the solo
for the part that starts at the 15th fret he just slides down
while still picking 16th notes,  but the frets marked down are		     
around the notes that you would hear                                     

play three times
|----------------|------------------|---------------|
|.---33333-------|-5555------------.|---33333-------|
|.---------33333-|------5555-------.|---------33333-|
|--1-------------|-----------33333--|-1-------------|			


-------------------------------------|---------------|
-5-5-5-5-----------------------------|---3333--------|
---------5-5-5-5---15-14-12-10-8-7-5-|--------33333/-|			
-----------------3-------------------|-1-------------|


--------------------------------------------------|
--------------------------------------------------|
-10-10-10-10-10-10-10-10-10-10-10-10-10-10-10-10--|
--------------------------------------------------|

									
---------|---------|---------|----------|---------|---------|--------|-------|
---3-----|-5--5-55-|---3-----|----------|---3-----|-5--5-55-|--3-----|5--5-55|
-----3-3-|---------|-----3-3-|----------|-----3-3-|---------|----3-3-|-------|
-1-------|---------|-1-------|-3-3-3-3/-|-1-------|---------|1-------|-------|


----------|----------|----------|---------|---------|-------------|----------|
----------|----------|.---3-----|--------.|---3-----|-------------|--3h5-----|
-5-5-55-5-|-3-3-33-3-|.-----3-3-|--------.|-----3-3-|-10-10-10-\--|------3-3-|
----------|----------|--1-------|-3-3-3-3-|-1-------|-------------|1---------|


------------|-------------|------------|----------|---------|-----------|
-5----------|-3--3/5------|------------|-3-3-3----|---------|---3-------|
--------3h5-|--------5-3--|----------3-|------3-3-|---------|-----33333-|
---3-3h4----|-------------|-3-3-3-3h4--|----------|-3-3-3-3-|-1---------|


---------------|----------|---------------|----------|-----------------|
-5555----------|---3------|-5555----------|---3------|-5555------------|
------5--5-----|-----3333-|-----5-55------|-----3333-|-----555---------|
----------3333-|-1--------|---------33333-|-1--------|---------3333-\--|

Comments