Third Eye Blind - I Would Understand Chords & Tabs

 

I Would Understand Chords & Tabs

Third Eye Blind Chords & Tabs

Version: 2 Type: Tab 0 ratings
1 star 2 stars 3 stars 4 stars 5 stars
comments

I Would Understand Tab

   
Song: Jumper
Artist: Third Eye Blind
Album: Third Eye Blind
Transcribed by: ..::shamz::.. < shahshams@hotmail.com>

-0------0-------0-0----0---0---0-0------------3----3---3----|--3-----0--------|
-1------1-------1-1----1---1---1-1-----0------3----3---3----|--3-----1--------|
-2------2-------0-0----0---0---0-0-----0------0----0---0----|--0-----2--------|
-3------3---------2----2---2---2-2-----0------0----0---0----|--0-----3--------|
------------------3----3---3-----3-----2------2--------2----|--2--------------|
---------------------------------------3------3--------0h3--|--3--------------|
 I wish you would step back from that ledge my friend          You could

-0--0--0----0--0-----------------3----3-------3-----3---|-----0--0--0--0------|
-1--1--1----1--1h3--3-----0------3----3-------3-----3---|-----1--1--1--1------|
-2--2--2----0--0----0-----0------0----0-------0-----0---|-----2--2--2--2------|
-3--3--3----2--2----2-----0------0----0-------0-----0---|-----3--3--3--3------|
---------------3----3------------2----2-------2-----2---|---------------------|
---------------------------------3----3-------3-----0h3-|---------------------|
 cut ties with all the lies that you've been livin in     and   if you do

-0----------------------------------------------------------------------------|
-1h3--3-----------------------------------------------------------------------|
-0----0-----------------------------------------------------------------------|
-2----2-----------------------------------------------------------------------|
-3----3-----------------------------------------------------------------------|
------------------------------------------------------------------------------|
 not want to see me again i would understand
[ Tab from: http://www.guitartabs.cc/tabs/t/third_eye_blind/i_would_understand_tab_ver_2.html ]
Chorus
Am, C, G
with
------------------------------------------------------------------------------|
------------------------------------------------------------------------------|
--0-0-0-0-0-0-0-0-0-0-0-0-0-0-------------------------------------------------|
------------------------------------------------------------------------------|
------------------------------------------------------------------------------|
------------------------------------------------------------------------------|
                             w/wah
then Am, C, G,
 C  /  /  /   /   /  /   / /   / D triad
-0---------------------------------------0---------0--------------------------|
-1----------------------------------3------3-------1--------------------------|
-0----------------------------------0--------0-----0--------------------------|
-2------------------------------------4--------4---2--------------------------|
-3--------------------------------5----------------3--------------------------|
------------------------------------------------------------------------------|
 Well everyone I know has got a reason to say..    put the past away..

Solo
---------------------------------------13p12h13-12-13p12----------------------|
-12-13p12h13--12-13p12h13-15-13p12-----------------------12-13b14r13----------|
------------------------------------0-----------------------------------------|
------------------------------------------------------------------------------|
------------------------------------------------------------------------------|
------------------------------------------------------------------------------|
                                                                       repeat

At end
-19\\\\\\\\\-------------------------------------------------------------------|
-------------------------------------------------------------------------------|
-------------------------------------------------------------------------------|
-------------------------------------------------------------------------------|
-------------------------------------------------------------------------------|
-------------------------------------------------------------------------------|

After 8 bars of solo with drums Fma7, C, G comes in..end solo on with above
note
 C  /  /  /   /   /  /   / /   / D triad
-0---------------------------------------0---------0--------------------------|
-1----------------------------------3------3-------1--------------------------|
-0----------------------------------0--------0-----0--------------------------|
-2------------------------------------4--------4---2--------------------------|
-3--------------------------------5----------------3--------------------------|
------------------------------------------------------------------------------|

Repeat verse chords with "I wish you would step back from that ledge my friend,
(I would understand).."
Comments