Third Eye Blind - Hows It Going To Be Chords & Tabs

 

Hows It Going To Be Chords & Tabs

Third Eye Blind Chords & Tabs

Version: 2 Type: Tab 0 ratings
1 star 2 stars 3 stars 4 stars 5 stars
comments

Hows It Going To Be Tab

   
Third Eye Blind - Hows it Going to Be           


Intro:
Fig A

---1---1----1--1--1---1--x--0---0---------------------------
---1---1----1--1--1---1--x--1---1--3--3---3-3--3--3-3--3----
---2---2----2--2--2---2-----0---0--3--3---3-3--3--3-3--3----
---3---3----3--3--3---3-----2---2--3--3---3-3--3--3-3--3----
---3---3----3--3--3---3-----3---3--1--1---1-1--1--1-1--1----
---1---1----1--1--1---1-------------------------------------



--5--5--5---6--5--5--5--5--0---0-------1---1---1--1--1------
--6--6--6---6--6--6--6--6--1---1-------1---1---1--1--1------
--5--5--5---5--5--5--5--5--0---0---3---3---3---3--3--3------
--7--7---------7-----7-----2---2---3---3---3------3--3------
--8--8---------8-----8-----3---3---1---1---1------1--1------
------------------------------------------------------------


--1/5--5--5--5-5--5--0----0-----1---1--1--1--1--1---1-------
--1/6--6--6--6-6--6--1----1-----1---1--1--1--1--1---1-------
--3/5--5--5--5-5--5--0----0-----3---3--3--3--3--3---3-------
--3/7--7--7--7-7--7--2----2--3--3------------1--3---3-------
--1/8--8--8--8-8--8--3----3--1--1------------1--1---1-------
------------------------------------------------------------


2nd guitar w/fig A

------------------------------------------------------------
---10h11p10---------10h11p10----10h11--13------10h11p10-----
------------10---10----------10-------------10-----------10-
------------------------------------------------------------
------------------------------------------------------------
------------------------------------------------------------


------------------------------------------------------------
------10h11p10-----10h11---------10h11p10---------10h11p10--
--10-----------10--------------------------10--10-----------
--------------------------10--------------------------------
------------------------------------------------------------
------------------------------------------------------------



------------------------------------------------------------
------10h11-13------10h11p10----------10h11p10------10-11---
-10--------------10----------10---10------------10----------
----------------------------------------------------------10\
------------------------------------------------------------
------------------------------------------------------------

1st & 2nd Verses

--5--5--5---6--5--5--5--5--0---0-------1---1---1--1--1------
--6--6--6---6--6--6--6--6--1---1-------1---1---1--1--1------
--5--5--5---5--5--5--5--5--0---0---3---3---3---3--3--3------
--7--7---------7-----7-----2---2---3---3---3------3--3------
--8--8---------8-----8-----3---3---1---1---1------1--1------
------------------------------------------------------------


--1/5--5--5--5-5--5--0----0-----1---1--1--1--1--1---1/------
--1/6--6--6--6-6--6--1----1-----1---1--1--1--1--1---1/------
--3/5--5--5--5-5--5--0----0-----3---3--3--3--3--3---3/------
--3/7--7--7--7-7--7--2----2--3--3------------1--3---3/------
--1/8--8--8--8-8--8--3----3--1--1------------1--1---1/------
------------------------------------------------------------


1st & 2nd Choruses
play 2x
                                     9x
--3----3----3-3--3---3---5---5-------0----------------------
--3----3----3-3--3---3---5---6-------1----------------------
--3----3----3-3--3---3---5---5---0---0----------------------
--5----5----5-5--5---5---7---7---2---2----------------------
--5----5----5-5--5---5---8---8---3---3----------------------
--3----3----3-3--3---3--------------------------------------

                                     7x
--3----3----3-3--3---3---5---5-------1----------------------
--3----3----3-3--3---3---5---6-------1----------------------
--3----3----3-3--3---3---5---5-------3----------------------
--5----5----5-5--5---5---7---7---3---3----------------------
--5----5----5-5--5---5---8---8---1---1----------------------
--3----3----3-3--3---3--------------------------------------

[ Tab from: http://www.guitartabs.cc/tabs/t/third_eye_blind/hows_it_going_to_be_tab_ver_2.html ]
Bridge
  8x           8x         8x        5x   4x           8x
--3------------1----------1--------------0------------3-----
--3------------1----------1---------5----1------------3-----
--3------------3----------2---------5----0----5---x---3-----
--5------------3----------3---------5----2----5---x---5-----
--5------------1----------3---------3----3----3-------5-----
--3-------x----------x----1---------3---------0-------3---0-


------------------
------------------
---3-----3--------
---3-----3--------
---1-----1--------
--------------x---



3rd Verse:
                                         8x          4x
------1--1---1--1------------------------6----6\-----1------
------1--1---1--1------------------------6----6\-----1------
--2---2--2---2--2---2-------------9\7----7----7\-2---2---2--
--3---3--3---3--3---3---x----10--10\8----8----8\-3---3---3--
--3---3--3---3--3---3---x----10--10\8----8----8\-3---3---3--
--1---1--1---1--1---1-----/8--8---8\6----6----6\-1---1---1--


--------------
--------------
--------------2x
-x------10----
-x------10----
----/8---8----


3rd chorus
gtr 1
     8x        6x              8x        12x    8x
-----3---------1---------------1----------0-----3------1----
-----3---------1---------------1----------1-----3------1----
-----3----x----3----3--3-------2----0-----0-----3---0--3----
-----5----x----3----3--3--x----3----2-----2-----5---0--3----
-----5---------1----1--1--x----3----------3-----5------1----
-----3---------1---------------1----------------3-----------

3rd chorus 2nd guitar
------------------------------------------------------------
--10----10----10----10------13----13----13--13--------10----
-----10----10----10----10------10----10-10------10-10----10-
------------------------------------------------------------
------------------------------------------------------------
------------------------------------------------------------



------------------------------------------------------------
-10----10----10----13--13---------13--------13------13------
----10----10----10-----12--10-10--12--10-10-12--10--12--10--
------------------------------------------------------------
------------------------------------------------------------
------------------------------------------------------------


-------------------------------------------
--13----------10----10----10----10------13-
--12---10-10-----10----10----10----10---10-
-------------------------------------------
-------------------------------------------
-------------------------------------------


Outro

------------------5-------0-----------1---------------------
------------------6-------1-------1---1-------------5h6-----
--5--5--5---5--5--5---0---0---3---3---3----3---3----5-------
--7--7--7---7--7--7---2---2---3---3--------3---3----7-------
--8--8--8---8--8--8---3---3---1---1--------1---1------------
------------------------------------------------------------

------------------------0-------1---1---1-------------------
-6---5h6--------6---1---1-------1----------3---1------------
-5---5-----5----5---0---0---3---3--------------3---3--------
-7---------7--------2-------3---3---------------------------
-----------8------------------------------------------------
------------------------------------------------------------





h=hammeron                         t=tap w/right hand
p=pulloff                          tr=trill
/\=slide                           ps=pick scrape
*=artificial harmonic              b=bend(to note)
+=natural harmonic

Metal Edge (619)423-4970 15,000+ guitar/bass/drum tablature
4 Gigs of MP3s.  Game Emulators, Hacking, BBS Programs More!
No slow connects/downloads no broken links, no channel takeovers, 
no ratios and no bullshit.  13Gigs, Fast Pentium 128megs of RAM
custom ansis, It's the BEST in San Diego.  This post has been posted
anonymously do not reply it will not get through to the author.
Call Metal Edge with questions/comments.
Comments