Third Eye Blind - God Of Wine Chords & Tabs

 

God Of Wine Chords & Tabs

Third Eye Blind Chords & Tabs

Version: 3 Type: Tab 0 ratings
1 star 2 stars 3 stars 4 stars 5 stars
comments

God Of Wine Tab

   
Third Eye Blind
God of Wine - Standard Tuning

Here goes my first try---

Intro, verse---

        A	                 Esus4	         F#m		A     
------------0--0-----------------------------------------------------5--5--0---0-----
-------------------------------0--0-------------2h3p2--2-----------------------------
-----2--2-------2--2----------------2--2------2----------2------2--2---------2-------
-----2--2----------------2--2-----------------------------------2--2-----------------
--0----------------------2--2---------------4----------------0-----------------------
-----------------------0------------------2------------------------------------------
[ Tab from: http://www.guitartabs.cc/tabs/t/third_eye_blind/god_of_wine_tab_ver_3.html ]
Then---
----------------------------------------------2-2-2-2--------------------------------
-----------5-5-5-5/7-5------------------------2-2-2-2--2-2-2-2/3-2-------------------
--2-2-2-2---------------2-2-2-2--4-4-4-4/6-4--2-2-2-2---------------2-2-2-2-2-2-2-2--
--2-2-2-2---------------2-2-2-2---------------4-4-4-4---------------2-2-2-2-2-2-2-2--
------------------------2-2-2-2---------------4-4-4-4--------------------------------
----------------------------------------------2-2-2-2--------------------------------

I know, I know, I know I know...                     I can't keep it all together... 
        Strum D Chord                                                       A - Asus4 - A

The siren's song that is your madness           holds a truth I can't erase
         E5				          F5

All alone on your face...  A Chord 
                                    --0---0---0---0---0---0---0---0----
                                    ----2---2---2---2---2---2---2---2--
                                    -----------------------------------
                                    -----------------------------------
                                    -----------------------------------
                                    -----------------------------------
That's it!  Hope you like it.  
All comments welcome --- Critiquing viewed as helpful.
Comments