Third Eye Blind - God Of Wine Chords & Tabs

 

God Of Wine Chords & Tabs

Third Eye Blind Chords & Tabs

Version: 2 Type: Tab 0 ratings
1 star 2 stars 3 stars 4 stars 5 stars
comments

God Of Wine Tab

   
Author/Artist: Third Eye Blind
Title: God of Wine
Album: Third Eye Blind
Transcribed by: John Terenzio
Email: terenzio@gate.net

May not be entirely correct...

Standard tuning: EADGBE.
>> = Hold
b = bend
v = vibrato


Part One
--------0-0------------------------------------------------------5-5-0---0----
-------------------------0-0-------------2---0-2-3-2-3------------------------
----2-2-----2-2--------------2-2-------2---2------------2----2-2-------2------
---------------------2-2------------------------------------------------------
-0---------------------------------------------------------0------------------
------------------0----------------2------------------------------------------
 Clean. Let all notes ring...                                         Keep Repeating  



Part Two
------------------------------------------------------------------------------
--------------5bv-------------2bv-------------2bv-------------5bv-------------
------------------------------------------------------------------------------
--7-7-7-7-7-7-----2-2-2-2-2-2-----4-4-4-4-4-4-----7-7-7-7-7-7-----------------
--7-7-7-7-7-7-----2-2-2-2-2-2-----4-4-4-4-4-4-----7-7-7-7-7-7-----------------
--5-5-5-5-5-5-----0-0-0-0-0-0-----2-2-2-2-2-2-----5-5-5-5-5-5-----------------
 Overdrive                                                          Repeat 2x      



Part Three
------------------------------------------------------------------------------
-7-7-7-7-7-7-7-7-7-7-7-7-7-7-7-7----------------------------------------------
-7-7-7-7-7-7-7-7-7-7-7-7-7-7-7-7-----7-----------7----------------------------
-5-5-5-5-5-5-5-5-5-5-5-5-5-5-5-5-7---7-7-----7---7-7--------------------------
---------------------------------7---5-7-----7---5-7--------------------------
---------------------------------5-----5-----5-----5--------------------------
 Overdrive                           Quick                          Repeat 2x      


[ Tab from: http://www.guitartabs.cc/tabs/t/third_eye_blind/god_of_wine_tab_ver_2.html ]
Part Four
------------------------------------------------------------------------------
------------------------------------------------------------------------------
-----------------------------------------------------------/9-----9>>---------
-2-2-2-2-2-2-2-2-2-2-2-2-2-2-2-2-4-4-4-4-4-4-4-4-4>>-------/7-----7>>---------
-2-2-2-2-2-2-2-2-2-2-2-2-2-2-2-2-4-4-4-4-4-4-4-4-4>>-------/7-----------------
-0-0-0-0-0-0-0-0-0-0-0-0-0-0-0-0-2-2-2-2-2-2-2-2-2>>-------/5-----------------
 Overdrive                                                        Feedback

------------------------------------------------------------------------------
-9---9---9---9---9---9---9---9------------------------------------------------
---7---7---7---7---7---7---7---7----------------------------------------------
------------------------------------------------------------------------------
------------------------------------------------------------------------------
------------------------------------------------------------------------------
                                       Back to Part One, then Two, then Five.



Part Five
------------------------------------------------------------------------------
------------------------------------------------------------------------------
------------------------------------------------------------------------------
-2-2-2-2-2-2-2-2-2-2-2-2-2-2-2-2-4-4-4-4-4-4-4-4-4-4-4-4-4-4-4-4-2-2-2-2-2-2--
-2-2-2-2-2-2-2-2-2-2-2-2-2-2-2-2-4-4-4-4-4-4-4-4-4-4-4-4-4-4-4-4-2-2-2-2-2-2--
-0-0-0-0-0-0-0-0-0-0-0-0-0-0-0-0-2-2-2-2-2-2-2-2-2-2-2-2-2-2-2-2-0-0-0-0-0-0--
 OD "There's a memory of..."                                                       

------------------------------------------------------------------------------
---------------------------------------------9-9---9---9---9---9---9---9------
---------------------------------------------7---7---7---7---7---7---7----ect.
-2-2-2-2-2-2-2-2-2-2-2-4-4-4-4-4-4-4-4-4>>------------------------------------
-2-2-2-2-2-2-2-2-2-2-2-4-4-4-4-4-4-4-4-4>>------------------------------------
-0-0-0-0-0-0-0-0-0-0-0-2-2-2-2-2-2-2-2-2>>------------------------------------
------------------------------------------------------------------------------
Comments