Third Eye Blind - God Of Wine Chords & Tabs

 

God Of Wine Chords & Tabs

Third Eye Blind Chords & Tabs

Version: 1 Type: Tab 0 ratings
1 star 2 stars 3 stars 4 stars 5 stars
comments

God Of Wine Tab

   
SONG:  God of Wine
GROUP: Third Eye Blind
ALBUM: 3eb
tabbed by moonsoon3@aol.com

all right, I saw the real version in a funky tuning--DADEAD--so i transcribed it to normal tuning--just for us lazy ones who dont want to retune.  this is totally and one-hundred percentally correct.

intro, verse:
 A5              Asus2           F#m                 D5/A
e-----------------------------------------------------------5-5--------
B-------5-5-------------0-0----------------2-3-2-----------------------
G---------------------------2-2----------2-------2---------------7-7---
D---7-7-----7-7-----2-2-------------4--4-----------------7-7-------------
A-------------------------------------------------------------------
E-5-------------\0---------------2-----------------2/5-----------------

if you have two guitars like my band, the other can play:
----------------------------------------------------------------
----------------0-----------------------------------------------
----------------2---------------2--------------------7----------
--7-------------2---------------4--------------------7----------
--7-------------0---------------4--------------------5----------
--5-------------0---------------2--------------------5----------

pre-chorus
A5          E5            F#5         A5
-----------------------------------------------
--------5b-----------------------2b------------
--------------------4b-------------------------
-7-7--------2-2-----------4-4---------7-7------ repeat until . . .
-7-7-etc----2-2-etc-------4-4-etc-----7-7-etc--
-5-5--------0-0-----------2-2---------5-5------
[ Tab from: http://www.guitartabs.cc/tabs/t/third_eye_blind/god_of_wine_tab.html ]
 D                           A5 Asus4  A
-------------------------------------------------
-------------------------------------------------
(11)(11)---------------------------7-6-----------
-12--12----------------------777---7-7-----------
-12--12-etc------------------777---7-7-----------
-10--10----------------------555---5-5-----------
       I can't keep it all together

----------------------------------------------------
----------------------------------------------------
----------------------------------------------------
--------22-------------------44------------------4~-
--------22-etc---------------44-etc--------------4~-
--------00-------------------22------------------2~-
and the siren's song . . . . truth i can't escape

every thought that i repent there's another chip you haven't spent
and you're cashing it all in; where do we begin to get clean again
can we get clean again?
i walk home with you and the mood you're born in to sometimes you let me in
and i take it on the chin.  i can't get clean again.  i can't get clean again.
she takes a drink and then she waits the alcohol it permeates
and soon the cells give way and cancels out the day and i spin around

I can't keep it all together
I know, i know i know i know i know i know, i can't keep it all together
and the siren's song that is your madness holds a trugh i can't escape
all alone on your face

every glamorous sunrise throws the planets out of line
a star sign out of whack.  a fraudulent zodiac.
and the god of wine comes crashing through the headlights of the car
and it took you farther then you ever thought you'd go
i can't get back again.  we can't get back again.
and the god of wine is crouched down in your room you let me down i said it
now i'm going down, you're not even around and i spin around

I can't keep it all together
I know, i know i know i know i know i know, i can't keep it all together
and there's a memory of a window looking through i see you
searching for something i could never give you
there's someone who understands you more than i do
there's a silence i can't escape all alone on your face

the outro is
-----------------------------------------------
---5-----5-------------------------------------
-----2-----2---over-and-over-again-------------
-----------------------------------------------
-----------------------------------------------
-----------------------------------------------
Comments