Third Eye Blind - Farther Chords & Tabs

 

Farther Chords & Tabs

Third Eye Blind Chords & Tabs

Version: 1 Type: Tab 0 ratings
1 star 2 stars 3 stars 4 stars 5 stars
comments

Farther Tab

   
Person: Matt Veneklase

song: Farther

artist: Third Eye Blind

tab: Song: Farther
Artist: Third Eye Blind

Tabbed by: Matt Veneklase

/ = slide up.
h = hammer on.

I've tabbed out the bassline for this song also because parts
of it don't have any guitar, just bass, and I play the bass 
parts on my guitar.

Bassline into:

G|-------------------------|-------------------------|
D|-------------------------|-------------------------|
A|-------------------------|-2--2--2-2--2--2--2-2--2-|
E|-3--3--3-3--3--3--3-3--3-|-------------------------|


G|-------------------------|-------------------------|
D|-------------------------|-------------------------|
A|-3--3--3-3--3--3--3-3--3-|-3--3--3-3--3--3--3-3--3-|
E|-------------------------|-------------------------|

Bassline 1st verse:

G|-------------------------|--------------------------|
D|-------------------------|--------------------------|
A|-------------------------|-2--2--2-2--2--2--2-2h3/5-|
E|-3--3--3-3--3--3--3-3--3-|--------------------------|


G|-------------------------|-------------------------|
D|-------------------------|-------------------------|
A|-3--3--3-3--3--3--3-3--3-|-3--3--3-3--3--3--3-3--3-|
E|-------------------------|-------------------------|
[ Tab from: http://www.guitartabs.cc/tabs/t/third_eye_blind/farther_tab.html ]
Repeat this 4 times.  After playing 2 times the guitar comes in:
  (G5)                     (B5)
e|-------------------------|-7--7--7-7--7--7--7-7--7-|
B|-8--8--8-8--8--8--8-8--8-|-7--7--7-7--7--7--7-7--7-|
G|-7--7--7-7--7--7--7-7--7-|-------------------------|
D|-------------------------|-------------------------|
A|-------------------------|-------------------------|
E|-------------------------|-------------------------|
  (C5)                      
e|-8--8--8-8--8--8--8-8--8-|-8--8--8-8--8--8--8-8--8-|
B|-8--8--8-8--8--8--8-8--8-|-8--8--8-8--8--8--8-8--8-|
G|-------------------------|-------------------------|
D|-------------------------|-------------------------|
A|-------------------------|-------------------------|
E|-------------------------|-------------------------|
  (G5)                      (G5)
e|-------------------------|-7--7--7-7--7--7--7-7--7-|
B|-8--8--8-8--8--8--8-8--8-|-7--7--7-7--7--7--7-7--7-|
G|-7--7--7-7--7--7--7-7--7-|-------------------------|
D|-------------------------|-------------------------|
A|-------------------------|-------------------------|
E|-------------------------|-------------------------|
  (C5)
e|-8--8--8-8--8--8--8-8--8-|-X-X-8-------------------|
B|-8--8--8-8--8--8--8-8--8-|-X-X-8-------------------|
G|-------------------------|-X-X-5-------------------|
D|-------------------------|-----5-------------------|
A|-------------------------|-------------------------|
E|-------------------------|-------------------------|


Chorus:
  (G5)                      (B5)
e|-------------------------|-7--7--7-7--7--7--7-7--7-|
B|-8--8--8-8--8--8--8-8--8-|-7--7--7-7--7--7--7-7--7-|
G|-7--7--7-7--7--7--7-7--7-|-4--4--4-4--4--4--4-4--4-|
D|-5--5--5-5--5--5--5-5--5-|-4--4--4-4--4--4--4-4--4-|
A|-5--5--5-5--5--5--5-5--5-|-------------------------|
E|-------------------------|-------------------------|
  (C5)
e|-8--8--8-8--8--8--8-8--8-|-8--8--8-8--8--8--8-8--8-|
B|-8--8--8-8--8--8--8-8--8-|-8--8--8-8--8--8--8-8--8-|
G|-5--5--5-5--5--5--5-5--5-|-5--5--5-5--5--5--5-5--5-|
D|-5--5--5-5--5--5--5-5--5-|-5--5--5-5--5--5--5-5--5-|
A|-------------------------|-------------------------|
E|-------------------------|-------------------------|
  (G5)                      (B5)
e|-------------------------|-7--7--7-7--7--7--7-7--7-|
B|-8--8--8-8--8--8--8-8--8-|-7--7--7-7--7--7--7-7--7-|
G|-7--7--7-7--7--7--7-7--7-|-4--4--4-4--4--4--4-4--4-|
D|-5--5--5-5--5--5--5-5--5-|-4--4--4-4--4--4--4-4--4-|
A|-5--5--5-5--5--5--5-5--5-|-------------------------|
E|-------------------------|-------------------------|
  (C5)
e|-8--8--8-8--8--8--8-8--8-|-8--8--------------------|
B|-8--8--8-8--8--8--8-8--8-|-8--8--------------------|
G|-5--5--5-5--5--5--5-5--5-|-5--5--------------------|
D|-5--5--5-5--5--5--5-5--5-|-5--5--------------------|
A|-------------------------|-------------------------|
E|-------------------------|-------------------------|



The bass issilent for the 1st 3 measures of the second verse.
Bassline 2nd verse:
 (Talking to myself...)
G|-------------------------|
D|-------------------------|
A|-3--3--3-3--3--3--3-3--3-|
E|-------------------------|

G|-------------------------|-------------------------|
D|-------------------------|-------------------------|
A|-------------------------|-2--2--2-2/5-------------|
E|-3--3--3-3/7-------------|-------------------------|

For the rest of the second verse and the chorus the bassline is the
same as the intro bassline (I think).  That's all I've got so far.

If this transcription is correct then the lead parts are probaly based
on the G-major/C-lydian scale.

Any comments, corrections, or additions email me at
mattveneklase@hotmail.com.


Comments