Third Eye Blind - Deep Inside Of You Chords & Tabs

 

Deep Inside Of You Chords & Tabs

Third Eye Blind Chords & Tabs

Version: 1 Type: Tab 1 rating
1 star 2 stars 3 stars 4 stars 5 stars
comments

Deep Inside Of You Tab

   
Third Eye Blind

Deep Inside of You

Chords:

G Em7 D/F# Cadd9 D

E------3----3-----3-------3-----2------

B------3----3-----3-------3-----3------

G------0----0-----2-------0-----2------

D------0----2-----0-------2-----0------

A------2----2-----0-------3-----0------

E------3----0-----2-------x-----x------

Intro\Verse Riff:

G D/F# Em7 Cadd9

let ring let ring 

E------3------------------------3---3----3--3----3----3----------------------3--3--3--3--3---3--3--

B------3------------------------3---3----3--3----3----3----------------------3--3--3--3--3---3--3--

G------0-------0-0-0-0-0-0---2---2--2-------2------0-----0-0-0-0-0-0---0----0---------0--------

D------0-------0-0-0-0-0-0---0---------------------- 2-----2-2-2-2-2-2---2------------------------

A------2-------2-2-2-2-2-2---0-----------------------2-----2-2-2-2-2-2---3------------------------

E------3------------------------2-----------------------0----------------------x------------------------

Riff 2

G D/F# Em7 Cadd9

let ring let ring let ring

E------3------------------------3---3----3--3----3----3-----------------------------3-----------------

B------3------------------------3---3----3--3----3----3-----------------------------3-----------------

G------0-------0-0-0-0-0-0---2---2--2-------2------0-----0-0-0-0-0-0---0--0--0-----------------

D------0-------0-0-0-0-0-0---0---------------------- 2-----2-2-2-2-2-2---2--2--2-----------------

A------2-------2-2-2-2-2-2---0-----------------------2-----2-2-2-2-2-2---3--3--3-----------------

E------3------------------------2-----------------------0----------------------x------------------------

 

Verse 1: 

When we met light was shed
Thoughts free flow you said you've got something 
Deep inside of you
A wind chime voice sound, sway of your hips round rings true
Echo's deep inside of you
These secret garden beams changed my life so it seems

(riff 2)
[ Tab from: http://www.guitartabs.cc/tabs/t/third_eye_blind/deep_inside_of_you_tab.html ]
Fall breeze blows outside, i don't bring stride 
My thoughts are warm, and they go deep inside of you

Chorus: G Cadd9 
G Cadd9

And I never felt alone

G 
Alright, alone...alone

C
Till I met you


G Cadd9

Riff 1

Friends say I've changed
I don't listen cause I live to be
Deep inside of you
Slide of her dress, shouts in darkness 
I'm so alive I'm 
Deep inside of you
You said boy make girl feel good
But still...deep inside...STILL!

Chorus:

G Cadd9 G
I've never felt alone, till I met you

Cadd9 G

I'm alright on my own, till I met you

Cadd9 D
And I'd know what to do if I just knew what's coming

G D Cadd9
I would change myself if I could

D G
I'd walk with my own people if I could find them,

D Cadd9
And I would say that I'm sorry to you, 

D G
I'm sorry to you, but I don't want to call you, 

D Cadd9
But then I want to call you cause I don't want to crush you, 

D G
But I feel like crushing you and it's true

D Cadd9
I took for granted you were with me,

I breath by your looks and you look right through me

D G
But we were broken and didn't know it

D Cadd9

But we were broken and didn't know it

D Cadd9 D Cadd9
Right...oh right, what's right?

Verse Riff
Something's gone you withdraw and I'm not strong like before I was 
Deep inside of you 
I can go nowhere I burn candles and stare at a ghost
Deep inside of you
And some great need in me, starts to bled
I've lost my self there's nothing left, it's all gone
Deep inside of you


Outro:

G D\F# Em7 Cadd9 G

John Kendall

That’s about the whole song. If you have questions email me at 

guitarslinger@crazedanddazed.com
Comments