Third Eye Blind - Crystal Baller Chords & Tabs

 

Crystal Baller Chords & Tabs

Third Eye Blind Chords & Tabs

Version: 4 Type: Tab 0 ratings
1 star 2 stars 3 stars 4 stars 5 stars
comments

Crystal Baller Tab

   
Title: Crystal Baller
Artist: Third Eye Blind
Album: Out Of The Vein

Instrument: Guitar

Tabbed by: Cody (Sixstringking83@aol.com)

Tuning: Standard (E A D G B E)

This is it! Perfect!

INTRO:

   Dm/F           Em7           Dm               Em7
E|--1-----0-------------3--------------1p0--------------3-----------|
B|--3--------3-------3--------3-------------3--------3--------3-----|
G|-----2--------2----------0--------2----------2-----------0--------|
D|--3--------------2-------------0----------------2-----------------|
A|------------------------------------------------------------------|
E|------------------------------------------------------------------|


   Dm               Em7            G
E|--------1p0--------------3-----------------------3-----------------|
B|-------------3--------3--------3--------3--------3-----------------|
G|-----2----------2-----------0--------------0-----------------------|
D|--0----------------2-----------------0--------0--------------------|
A|-------------------------------------------------------------------|
E|----------------------------------3--------------------------------|

Can We Try And Take The High Road

    F5       Am5 Am75  C5  G5
E|--------------------------------------------------------------------|
B|--------------------------------------------------------------------|
G|--------------------(5)---------------------------------------------|
D|--3-3-3-3--7-5-7-5--(5)--5-5-x-5-x-x-5------------------------------|
A|--3-3-3-3--7-7-7-7--(3)--5-5-x-5-x-x-5------------------------------|
E|--1-1-1-1--5-5-5-5-------3-3-x-3-x-x-3------------------------------|

I Wonder What The Whole Thing Is For
[ Tab from: http://www.guitartabs.cc/tabs/t/third_eye_blind/crystal_baller_tab_ver_4.html ]
   Bb5  C5     Bb5  F5
E|--------------------------------------------------------------------|
B|--------------------------------------------------------------------|
G|--------------------------------------------------------------------|
D|--8-8--10-10--8-8--3-3----------------------------------------------|
A|--8-8--10-10--8-8--3-3----------------------------------------------|
E|--6-6--8--8---6-6--1-1---REPEAT-------------------------------------|

In The Moment You Were Screamin' Out

   A5   F5
E|--------------------------------------------------------------------|
B|--------------------------------------------------------------------|
G|--------------------------------------------------------------------|
D|--7-7--3-3----------------------------------------------------------|
A|--7-7--3-3----------------------------------------------------------|
E|--5-5--1-1--REPEAT--------------------------------------------------|

SOLO:
Switch to 3/4 time


E|-------------------------------------------------------------------|
B|-----------12------------------------------------------------------|
G|--/14--12------12------12------------------------------------------|
D|-------------------14------14--12\10\9/10--------------------------|
A|-------------------------------------------------------------------|
E|-------------------------------------------REPEAT------------------|


E|-------------------------------------------------------------------|
B|-----------12h13p12------------------------------------------------|
G|--/14--12------------12------12------------------------------------|
D|-------------------------14------14--12\10\9/10--12/7--------------|
A|-------------------------------------------------------------------|
E|-------------------------------------------------------------------|
Comments