Third Eye Blind - Crystal Baller Chords & Tabs

 

Crystal Baller Chords & Tabs

Third Eye Blind Chords & Tabs

Version: 3 Type: Tab 0 ratings
1 star 2 stars 3 stars 4 stars 5 stars
comments

Crystal Baller Tab

   
"Crystal Baller"

Tabbed By:K.A.Naimo
email: soulzero@snet.net


Clean Tone
Intro      F      C           F       C          F      C         G
                      p   (or)             p                               (X3)
E:1-||--1-----1--0---0-3--||------------------|-----------------|-------3--||
B:2-||------1------1------||--6-----6--5--5-8-|--6----6--5--5-8-|------3---||
G:3-||----0---------------||----5--------5----|----5------5-----|----0-----||
D:4-||--3--------2--------||------5-----------|-----5-----------|--5-----5-||
A:5-||--------------------||--8--------7------|7\8-------7------|----------||
E:6-||--------------------||------------------|-----------------|-(3)---(3)||
                                                             

listen to the song for correct strumming pattern.

        Fmaj.            Am           G
        n v n v n v  n v n n v          n   etc.                       
E:1-||---------------------0-0x-------|------------------------|
B:2-||--1-1-1-1-1-1--1-x-1-1-1x-------|--3-x-3-x---3--3-3-3-3--|
G:3-||--2-2-2-2-2-2--2-x-2-2-2x-------|--0-x-0-x---0--0-0-0-0--|
D:4-||--3-3-3-3-3-3--3-x-2-2-2x-------|--0-x-0-x---0--0-0-0-0--|
A:5-||--3-3-3-3-3-3--3-x-0-0-xx-------|--x-x-x-x---x--x-x-x-x--|
E:6-||--1-1-----1-1--1-x--------------|--3-x-3-x---3--3-3---3--|
       T  T     T T   T

        Fmaj            Am        C     G
        n v n v n v  n v n n v  n v      n        etc.                  
E:1-||---------------------0-0x--x-0--|------------------------|
B:2-||--1-1-1-1-1-1--1-x-1-1-1x--x-1--|--3-x-3-x---3--3-3-3-3--|
G:3-||--2-2-2-2-2-2--2-x-2-2-2x--x-0--|--0-x-0-x---0--0-0-0-0--|
D:4-||--3-3-3-3-3-3--3-x-2-2-2x--x-2--|--0-x-0-x---0--0-0-0-0--|
A:5-||--3-3-3-3-3-3--3-x-0-0-xx--x-3--|--x-x-x-x---x--x-x-x-x--|
E:6-||--1-1-----1-1--1-x--------------|--3-x-3-x---3--3-3---3--|
       T  T     T T   T

        Fmaj.            Am           G
        n v n v n v  n v n n v          n   etc.                       
E:1-||---------------------0-0x-------|------------------------|
B:2-||--1-1-1-1-1-1--1-x-1-1-1x-------|--3-x-3-x---3--3-3-3-3--|
G:3-||--2-2-2-2-2-2--2-x-2-2-2x-------|--0-x-0-x---0--0-0-0-0--|
D:4-||--3-3-3-3-3-3--3-x-2-2-2x-------|--0-x-0-x---0--0-0-0-0--|
A:5-||--3-3-3-3-3-3--3-x-0-0-xx-------|--x-x-x-x---x--x-x-x-x--|
E:6-||--1-1-----1-1--1-x--------------|--3-x-3-x---3--3-3---3--|
       T  T     T T   T

        Fmaj            Am        C     G
        n v n v n v  n v n n v  n v      n        etc.                  
E:1-||---------------------0-0x--x-0--|------------------------|
B:2-||--1-1-1-1-1-1--1-x-1-1-1x--x-1--|--3-x-3-x---3--3-3-3-3--|
G:3-||--2-2-2-2-2-2--2-x-2-2-2x--x-0--|--0-x-0-x---0--0-0-0-0--|
D:4-||--3-3-3-3-3-3--3-x-2-2-2x--x-2--|--0-x-0-x---0--0-0-0-0--|
A:5-||--3-3-3-3-3-3--3-x-0-0-xx--x-3--|--x-x-x-x---x--x-x-x-x--|
E:6-||--1-1-----1-1--1-x--------------|--3-x-3-x---3--3-3---3--|
       T  T     T T   T
[ Tab from: http://www.guitartabs.cc/tabs/t/third_eye_blind/crystal_baller_tab_ver_3.html ]
        Fmaj.            Am           G
        n v n v n v  n v n n v          n   etc.                       
E:1-||---------------------0-0x-------|------------------------|
B:2-||--1-1-1-1-1-1--1-x-1-1-1x-------|--3-x-3-x---3--3-3-3-3--|
G:3-||--2-2-2-2-2-2--2-x-2-2-2x-------|--0-x-0-x---0--0-0-0-0--|
D:4-||--3-3-3-3-3-3--3-x-2-2-2x-------|--0-x-0-x---0--0-0-0-0--|
A:5-||--3-3-3-3-3-3--3-x-0-0-xx-------|--x-x-x-x---x--x-x-x-x--|
E:6-||--1-1-----1-1--1-x--------------|--3-x-3-x---3--3-3---3--|
       T  T     T T   T


verse:
    ||  F          C       F         C          F       C           G   x2
                            p                                              ~
E:1-||--0---0----0---0----|------0--------0---|------0---x0---0---|--3------|
B:2-||--1---1----1---1----|--1---1--x-1---1---|--1---1----1---1---|--3---*--|
G:3-||--2---2--x-0---0----|--0---0----0---0---|--0---0---x0---0---|--0-(5\7)|
D:4-||--3---3----2---2--x-|2-3---3--x-----2---|--3---3---x2---2---|--0------|
A:5-||------3--x-3---3--x-|--3---3--x-3---3---|--3---3----3---3---|--x------|
E:6-||------------------x-|-------------------|-------------------|--3------|
                                                           *= 1st.time only


Chorus:| F Am | G | F Am C| G | F Am | G | F Am C| G | (X2)


Bridge: |Bb C  Bb C Bb C Bb C | Am F Am F Am F | F C  F C  F C | G | Intro X8
 
Chorus Etc.

End Solo x4                                  or

         p  ~        p       ~   p     p h       P  ~       P  
E:1-||--------------------------------------|--------------------|
B:2-||-10-8-----13-13-10---10---------------|--------------------|
G:3-||-------------------9------9-7---5-4-5-|--14-12---17-17-12--|
D:4-||--------------------------------------|--------------------|
A:5-||--------------------------------------|--------------------|
E:6-||--------------------------------------|--------------------|

                                  or

            ~     P       p  h       p ~       p     ~  p   p h     
E:1-||---------------------------|--5-3-----8-8-3---3------------|
B:2-||---------------------------|----------------5----5-3-------|
G:3-||----12---------------------|-------------------------5-4-5-|
D:4-||--14------14-12------------|-------------------------------|
A:5-||------------------15-14-15-|-------------------------------|
E:6-||---------------------------|-------------------------------|



         p  ~        p       ~   p     p h       ~       ~  The End   
E:1-||--------------------------------------|-----------------||
B:2-||-10-8-----13-13-10---10---------------|-----------------||
G:3-||-------------------9------9-7---5-4-5-|-\7------/2------||
D:4-||--------------------------------------|-----------------||
A:5-||--------------------------------------|-----------------||
E:6-||--------------------------------------|-----------------||


All the Little bends, Pull-offs, & hammer-ons, can be easliy figured out
By Using The F Major Scale in the Third Position.


E:1-|-------------------------------5-6-8------------------------||
B:2-|-------------------------5-6-8------------------------------||
G:3-|---------------------5-7------------------------------------||
D:4-|---------------5-7-8----------------------------------------||
A:5-|---------5-7-8----------------------------------------------||
E:6-|---5-6-7----------------------------------------------------||
Comments