Third Eye Blind - Anything Chords & Tabs

 

Anything Chords & Tabs

Third Eye Blind Chords & Tabs

Version: 1 Type: Tab 1 rating
1 star 2 stars 3 stars 4 stars 5 stars
comments

Anything Tab

#----------------------------------PLEASE NOTE---------------------------------#
#This file is the author's own work and represents their interpretation of the #
#song. You may only use this file for private study, scholarship, or research. #
#------------------------------------------------------------------------------##
Tabbed By: Michelle G. CyberPunk5k
		     
I would say that this is one of the best songs on the album, "blue", or at least i think it is.

intro:
this is played with an acoustic guitar.
|------------------|
|------------------|
|*----------------*|
|*-----4-----5----*|
|----3-----4-------|
|--4-----2---------|

riff 1:
|---------------------------------------|
|---------------------------------------|
|*-------------------------------------*|
|*-7-7-7-7-7-7-7-7---6-6-6-6-6-6-6-6---*|
|--7-7-7-7-7-7-7-7---7-7-7-7-7-7-7-7----|
|--5-5-5-5-5-5-5-5---5-5-5-5-5-5-5-5----|
[ Tab from: http://www.guitartabs.cc/tabs/t/third_eye_blind/anything_tab.html ]
riff 2:
|----------------------|----------------------------------|
|----------------------|----------------------------------|
|----------------------|*--------------------------------*|
|-4--4-4--4-6-6-6-6-6-6|*4-4-4-4-4-4-4-4-6-6-6-6-6-6-6-6-*|
|-2--2-2--2-4-4-4-4-4-4|-2-2-2-2-2-2-2-2-4-4-4-4-4-4-4-4--|
|----------------------|----------------------------------|

2nd guitar:		1st guitar, riff 3
|------------------	|----------------|
|------------------	|------6---------|
|-12-13-12-10------	|------6---------|
|------------------	|--6-6-6---------|
|------------------	|--4-4-4---------|
|------------------	|----------------|

2nd guitar
|------------------------------------------------------|
|-------------12-11-12-14------------------------------|
|-12-11-12-14------------------------------------------|
|------------------------------------------------------|
|------------------------------------------------------|
|------------------------------------------------------|
I don't know the rest, so um, yeah. if you have the rest, post em
 cp5k
Comments