Third Eye Blind - An Ode To Maybe Chords & Tabs

 

An Ode To Maybe Chords & Tabs

Third Eye Blind Chords & Tabs

Version: 1 Type: Tab 0 ratings
1 star 2 stars 3 stars 4 stars 5 stars
comments

An Ode To Maybe Tab

   
Person: Glenn Elliott

song: An Ode to Maybe

artist: Third Eye Blind

tab: Band-Third Eye Blind
Song-An Ode To Maybe
Album-Blue

standard tuning
this is a pretty easy song and sound unreal with bass and a good
drummer.
it needs a bit of distortion to sound good.

intro:

e-------------------------------------------------|
B------5--5--5----------------------3-------3-----|
G------4--5--5----------------------5--5-----5----|
D------5--5--5----X-X--3-3-3--------5----5-----5--|
A-----------------X-X--3-3-3--------3-------------|
E-----------------X-X--1-1-1--X3----3-------------| 


chorus:  just strum like an acoustic

      Fmaj     Cmaj      A5    G5    F5
e-------1-------3---------------------------------|
B-------1-------3---------------------------------|
G-------2-------5---------------------------------|
D-------3-------5---------7-----5-----3-----------|
A-------3-------3---------7-----5-----3-----------|
E-------1-------3---------5-----3-----1-----------|

Then he plays a little riff with the chorus
[ Tab from: http://www.guitartabs.cc/tabs/t/third_eye_blind/an_ode_to_maybe_tab.html ]
riff1
e-----17------17--15------------------------------|
B---------13-----------12--13--15--17-------------|
G-------------------------------------------------|
D-------------------------------------------------|
A-------------------------------------------------|
E-------------------------------------------------|

riff2
e-------------3h5p3~------------3h5p3~------------|
B--------------------------------------6-5~-3~-1~-|
G-----4--5-5------------4--5-5--------------------|
D-------------------------------------------------|
A-------------------------------------------------|
E-------------------------------------------------|

then comes a pritty kewl solo

e----7/8\7-5-7----------5-------------------------|
B-------------------6-8---6--3~-------------------|
G-------------------------------------------------|

e----7/8\7-5-7----------5--12~--------------------|
B-------------------6-8---------------------------|
G-------------------------------------------------|

e----7/8\7-5-7----------5-------------------------|
B-------------------6-8---6--3~---6-5-3-1-1-1-1~--|
G-------------------------------------------------|

Then back to the chorus and riff1
any comments or fixups just email me glenn@hotkey.net.au. seeya.

SUBMIT: Send
Comments