Third Day - Who I Am Chords & Tabs

 

Who I Am Chords & Tabs

Third Day Chords & Tabs

Version: 2 Type: Bass Tab 0 ratings
1 star 2 stars 3 stars 4 stars 5 stars
comments

Who I Am Bass Tab

"Who I am" Bass Tab
Third Day
by Harry Krewson
Before the verses there is a guitar intro.  
[ Tab from: http://www.guitartabs.cc/tabs/t/third_day/who_i_am_btab_ver_2.html ]
verses
------------------------------------------
------------------------------------------
--/7-7-7-7--7--\4-4-4-3-3--3--------------
------------------------------------------
pre-chorus
----------------------------------------------
----------------------------------------------
--3----3-3-3----5---5-5-5---------------------
---------------------------0---0-0-0--5--5-5-5

----------------------------------------------
----------------------------------------------
--3----3-3-3----5---5-5-5--------5-7-7--------
---------------------------0---0---------5-5-5
chorus
----------------------------------------------
----------------------------------------------
------------5---5-5-5-----------3---3-3-3-----
--3---3-3-3-----------0---0-0-0---------------

any questions or requests please write me at 
peludo76@hotmail.com.
Comments