Third Day - Thief Chords & Tabs

 

Thief Chords & Tabs

Third Day Chords & Tabs

Version: 1 Type: Tab 0 ratings
1 star 2 stars 3 stars 4 stars 5 stars
comments

Thief Tab

   
Thief by Third Day 
copyright Graydot records
tabbed by Eric Benedict
bigfil@juno.com   
This is a great song,  listen to the CD to get the rhythm right


verse

I am a thief....
e|----3-------------------1------------3--------------------------|
B|----4------------------ 1------------4--------------------------|
G|----5---------3---------2------------5--------------------------|
D|----5---------3---------3------------5--------------------------|   Repeat
A|----3---------1---------3------------3--------------------------|
E|------------------------1---------------------------------------|

1st chorus
and I know.......
[ Tab from: http://www.guitartabs.cc/tabs/t/third_day/thief_tab.html ]
e|--3---3-------------------------------------------------------------|
B|--3---3-------------------------------------------------------------|
G|--0---0---3--3----5--5----------------------------------------------|
D|--0---0---3--3----5--5----------------------------------------------|
A|--2---2---1--1----3--3----------------------------------------------|
E|--3---3-------------------------------------------------------------|
go to
2nd verse then to back to 1st  chorus
pick up tempo for 3rd verse then to 2nd Chorus
2nd Chorus
he looks at me still holding on...
e|--3--3-----------------3-3--------1--1-----------------------------|
B|--3--3-----------------3-3--------1--1-----------------------------|
G|--0--0---3-3--5--5-----0-0---3-3--2--2---5--5----------------------|
D|--0--0---3-3--5--5-----0-0---3-3--3--3---5--5----------------------|
A|--2--2---1-1--3--3-----2-2---1-1--3--3---3--3----------------------|
E|--3--3-----------------3-3--------1--1-----------------------------|


check out my band Lunar Fish webpage
http://members.aol.com/fivefe/index.html
thanks

Comments