Third Day - These Thousand Hills Chords & Tabs

 

These Thousand Hills Chords & Tabs

Third Day Chords & Tabs

Version: 2 Type: Tab 0 ratings
1 star 2 stars 3 stars 4 stars 5 stars
comments

These Thousand Hills Tab

   
IF THIS WORKS PLEASE LET ME KNOW BY RATING IT

Whole Guitar is TUNED DOWN HALF A STEP you don't really need it to be though
this one's a little harder than guitar one
H=Hammer

HERE'S GUITAR 2

Verse:
E------------------------------0------0------0------0------------------|
B-----------------------------0-0-0-2H-2-0----0-0-2H-2-0---------------|
G----2----2-------2----2-----1-----------------------------2----2------|
D-----2-4H-4-2-----2-4H-4-2-----------------2---------------4-2H-4-2---|
A-0------------0-----------------------------------------0-------------|
E------------------------------------------0---------------------------|


E-----------------------|
B-----------------------|
G----2-0---------2------|
D-0-0-0-4-2-0---------2-|
A-------------0---------|
E------------------0----|

Refrain: (the "lala" part)
[ Tab from: http://www.guitartabs.cc/tabs/t/third_day/these_thousand_hills_tab_ver_2.html ]
E-7-9-7-9-7-9--7-9-7-9-7-9--------------------------------------|
B---------------------------10-12-10-12-10-12-10-12-10-12-10-12-|
G-----9---9--------9---9----9-----9-----9-----9-----9-----9-----|
D---------------------------------------------------------------|
A-0------------0------------------------------------------------|
E---------------------------------------------------------------|
 lalalalalala lalalalalala  lala  lala  lala  lala  lala  lala

E-7-9-7-9-7-9--7-9-7-9-7-9--7-9-7-9--------------7-9--|H
B-----------------------------------10-12--10-12------|
G-----9---9------------9----9---9---9------9-----9----|
D--------------0---7----------------------------------|
A-0----------------------------------------------0----|
E-----------------------------------------------------|
 lala lala lalalalalalalala lala lala lalalala  lala
Comments