Third Day - These Thousand Hills Chords & Tabs

 

These Thousand Hills Chords & Tabs

Third Day Chords & Tabs

Version: 1 Type: Tab 0 ratings
1 star 2 stars 3 stars 4 stars 5 stars
comments

These Thousand Hills Tab

   
Here's guitar one (if you want it to sound like the recording you have to tune the whole 
down half a step its not really neccesary)

H=Hammer
[ Tab from: http://www.guitartabs.cc/tabs/t/third_day/these_thousand_hills_tab.html ]
E---0-----0------0-----0------------------------------0-----0----|
B-----2-3H-3-2-----2-3H-3-2---0----0------0----0--------2-3H-3-2-|
G--2-2----------2-2------------1-2H-2-1----1-2H-2-1--2-2---------|
D----------------------------2-----------2-----------------------|
A-0------------0------------------------------------0------------|
E---------------------------0-----------0------------------------|
 Hi_____lls roll...     ...O____F a mighty God  ...to my knees in

E---5-2-3H-2------0-----0--|
B--3-3------5-3----2-0-0-0-|
G-2--------------2---------|
D--------------------------|
A---------------0----------|
E---------------------0----|
praise...

PLAY ALSO WITH GUITAR 2 IT SOUNDS AWESOME
Comments