Third Day - My Hope Is You Chords & Tabs

 

My Hope Is You Chords & Tabs

Third Day Chords & Tabs

Version: 1 Type: Tab 0 ratings
1 star 2 stars 3 stars 4 stars 5 stars
comments

My Hope Is You Tab

   
Song:My Hope is You
Album:Offering

Intro:

   C       Csus       C       Csus            (play throughout the whole
E-----------------------------------------------|      song)
B---1--1-----1--1--1----1--1-----1--1--1--------|
G----0--0-----0--0--0----0--0-----0--0--0-------|
D--2--2--2-3H--3--3----2--2--2-3H--3--3---------|
A-3-------------------3-------------------------|
E-----------------------------------------------|

Solo
[ Tab from: http://www.guitartabs.cc/tabs/t/third_day/my_hope_is_you_tab.html ]
E---------------8--8--------------8--8-15--15--13--13--12--12----------->
B-8-10H-8-----------8-8-10H--------------13--13--13--13--13--13-15-8-10H>
G--------9-7-10--10--------9-7-10--10----------------------------------->
D----------------------------------------------------------------------->
A----------------------------------------------------------------------->
E----------------------------------------------------------------------->

E-8-10H-10-12H-8--8-10H-8-|
B---------------10--------|
G-------------------------|
D-------------------------|
A-------------------------|
E-------------------------|
Comments