Third Day - Have Mercy Chords & Tabs

 

Have Mercy Chords & Tabs

Third Day Chords & Tabs

Version: 1 Type: Tab 0 ratings
1 star 2 stars 3 stars 4 stars 5 stars
comments

Have Mercy Tab

   
-------------------------------------------------------------------------------
			     Have Mercy - Third Day
-------------------------------------------------------------------------------
Tabbed by: Dirk
Email: dirkcreed@hotmail.com


great song, from the album Conspiracy No.5   www.thirdday.com

Tuning: standard low to high E A D G B E

Intro: Guitar 1

                    

e|-----------------------------------------------------------------------|
B|-----------------------------------------------------------------------|
G|-----------------------------------------------------------------------|
D|--5-5--7-7-7-7-7-7-7~~--5-5--7-7-7-7-7-7-7~~---------------------|repeat
A|--5-5--7-7-7-7-7-7-7----5-5--7-7-7-7-7-7-7-----------------------------|
E|--3-3--5-5-5-5-5-5-5----3-3--5-5-5-5-5-5-5-----------------------------|


Guitar 2                                                       
         Palm Muted, fast upstrokes
e|-----------------------------------------------------------------------|
B|-----------------------------------------------------------------------|
G|-----------------------------------------------------------------|repeat
D|-------7-7-7-7-7-7-7-7-7-7-7-7-7-7-7-7-7-------------------------------|
A|-------5-5-5-5-5-5-5-5-5-5-5-5-5-5-5-5-5-------------------------------|
E|-------5-5-5-5-5-5-5-5-5-5-5-5-5-5-5-5-5-------------------------------|


Verse 1: same as intro


Chorus:

Have Mercy...
                            
Guitar 1

e|-----------------------------------------------------------------------|
B|--5--5-----------------7--7-----5--------------------------------------|
G|--6--6-6--x-4-4-4-4--x-7--7-7-x-5-5-5-5--------------------------------|
D|--7--7-7--x-5-5-5-5--x-7--7-7-x-5-5-5-5--------------------------------|
A|--7--7-7--x-5-5-5-5--x-5--5-5-x-3-3-3-3--------------------------------|
E|--5--5-5--x-3-3-3-3--x-------------------------------------------------|


e|-----------------------------------------------------------------------|
B|--5--5-----------------7--7-----5--------------------------------------|
G|--6--6-6--x-4-4-4-4--x-7--7-7-x-5-5-5-5--------------------------------|
D|--7--7-7--x-5-5-5-5--x-7--7-7-x-5-5-5-5--------------------------------|
A|--7--7-7--x-5-5-5-5--x-5--5-5-x-3-3-3-3--------------------------------|
E|--5--5-5--x-3-3-3-3--x-------------------------------------------------|

Guitar 2 plays this little riff at the end of the chorus:
-------
e|-----------------------------------------------------------------------|
B|-----------------------------------------------------------------------|
G|-----------------------------------------------------------------------|
D|-----------------------------------------------------------------------|
A|--------------------------------3-2p0----------------------------------|
E|-------------------------------------3-2-3h5---------------------------|




Verse 2

If it\'s true that...
e|-----------------------------------------------------------------------|
B|-----------------------------------------------------------------------|
G|-----------------------------------------------------------------------|
D|--5-5--7-7-7-7-7-7-7~~--5-5-7-7-7-7-7-7-7~~-------------| repeat 3 times
A|--5-5--7-7-7-7-7-7-7----5-5-7-7-7-7-7-7-7------------------------------|
E|--3-3--5-5-5-5-5-5-5----3-3-5-5-5-5-5-5-5------------------------------|

Guitar 2 
         PM, same as above
e|-----------------------------------------------------------------------|
B|-----------------------------------------------------------------------|
G|-----------------------------------------------------------------------|
D|-------7-7-7-7-7-7-7-7-7-7-7-7-7-7-7-7-7-------------------------------|
A|-------5-5-5-5-5-5-5-5-5-5-5-5-5-5-5-5-5-------------------------------|
E|-------5-5-5-5-5-5-5-5-5-5-5-5-5-5-5-5-5-------------------------------|



second chorus


Bridge:

                                

e|-----------------------------------------------------------------------|
B|-----------------------------------------------------------------------|
G|--7--7-7-7--x----------------------------------------------------------|
D|--7--7-7-7--x-7-7-7-7---5-5-5-5---7-7-7-7------------------------------|
A|--5--5-5-5--x-7-7-7-7---5-5-5-5---7-7-7-7------------------------------|
E|--------------5-5-5-5-- 3-3-3-3---5-5-5-5------------------------------|
[ Tab from: http://www.guitartabs.cc/tabs/t/third_day/have_mercy_tab.html ]
e|-----------------------------------------------------------------------|
B|-----------------------------------------------------------------------|
G|--7--7-7-7--x---------------12---11---9---7---6/7/9--------------------|
D|--7--7-7-7--x-7-7-7-7----------------------------------7---------------|
A|--5--5-5-5--x-7-7-7-7-------10---9----7---5---4/5/7----7---------------|
E|--------------5-5-5-5----------------------------------5---------------|


My will won\'t... no rythim

e|--------------------------------17~~~~---------------------------------|
B|-----------------------------------------------------------------------|
G|-------------------------------------------------------------x-x-x-----|
D|----7~~~~----------------------------------------------------x-x-x-----|
A|-------------------------------------------------------------x-x-x-----|
E|-------------------------------------------------------------x-x-x-----|

Guitar 1
Backing guitar for solo is same as chorus and bridge after each other


Solo

e|-----------------------------------------------------------------------|
B|-------------------------------13--------------------------------------|
G|---/9~~~~~9-9-9-9p7~~-----/14~~--14\\12~~--11~~~12p11~~-----------------|
D|-----------------------------------------------------------------------|
A|-----------------------------------------------------------------------|
E|-----------------------------------------------------------------------|

e|-----------------------------------------------------------------------|
B|----------------------------------------13-------15b17r15-13-----------|
G|----5-5h7-7-7-7p5---5-7b9r7-5~~----/14~---14p12~------------14/17~-----|
D|------------------7----------------------------------------------------|
A|-----------------------------------------------------------------------|
E|-----------------------------------------------------------------------|

e|---/17-----14h15-------------------------------------------------------|
B|-----------------16-17~~~----13h14------16-14~~~~----------------------|
G|-----------------------------------1412-----------12---12\\-------------|
D|----------------------------------------------------14-----------------|
A|-----------------------------------------------------------------------|
E|-----------------------------------------------------------------------|



Chorus:  with some lead notes, repeat 1 time


Outro:

Guitar 1

e|-----------------------------------------------------------------------|
B|-----------------------------------------------------------------------|
G|-----------------------------------------------------------------------|
D|--5-5-5----7-7-7-7-7-7-7~~-----5-5-5---7-7-7-7-7-7-7~~-----------------|
A|--5-5-5----7-7-7-7-7-7-7-------5-5-5---7-7-7-7-7-7-7-------------------|
E|--3-3-3----5-5-5-5-5-5-5-------3-3-3---5-5-5-5-5-5-5-------------------|

Guitar 2

e|-----------16\\13--16\\--16\\--18~18~~----16\\13--16\\--16\\--18~18~~--------|
B|-----------------------------------------------------------------------|
G|-----------------------------------------------------------------------|
D|-----------------------------------------------------------------------|
A|-----------------------------------------------------------------------|
E|-----------------------------------------------------------------------|


e|-----------------------------------------------------------------------|
B|-----------------------------------------------------------------------|
G|--7--7-7-7--x----------------------------------------------------------|
D|--7--7-7-7--x-7-7-7-7---5-5-5-5---7-7-7-7------------------------------|
A|--5--5-5-5--x-7-7-7-7---5-5-5-5---7-7-7-7------------------------------|
E|--------------5-5-5-5-- 3-3-3-3---5-5-5-5------------------------------|

e|-----------------------------------------------------------------------|
B|-----------------------------------------------------------------------|
G|--7--7-7-7--x---------------12---11---9---7---6/7/9--------------------|
D|--7--7-7-7--x-7-7-7-7----------------------------------7\\--------------|
A|--5--5-5-5--x-7-7-7-7-------10---9----7---5---4/5/7----7\\--------------|
E|--------------5-5-5-5----------------------------------5\\--------------|


Have Fun! if there are any corrections, please let me know.


| /  slide up
| \\  slide down
| h  hammer-on
| p  pull-off
| ~  vibrato 
| x  Mute note
===============================================================================

Comments