Third Day - God Of Wonders Chords & Tabs

 

God Of Wonders Chords & Tabs

Third Day Chords & Tabs

Version: 3 Type: Tab 0 ratings
1 star 2 stars 3 stars 4 stars 5 stars
comments

God Of Wonders Tab

   
		         God of Wonders- Third Day
Tabbed by:Kevin Y.
Email: kpyu79@msn.com

       This is the solo for God of Wonders. Im sure its right.
   Hope you like it.

Solo
e|--------------------------------------------------------------------------|
B|---9h10-10-10-10p9--------------------------------------------------------|
G|--------------------9~~/11\-9--9h11-11-11-11h9----------------------------|
D|--------------------------------------------------9~~9/11-11h12-12-12-12--|
A|--------------------------------------------------------------------------|
E|--------------------------------------------------------------------------|
[ Tab from: http://www.guitartabs.cc/tabs/t/third_day/god_of_wonders_tab_ver_3.html ]
e|--------------------------------------------------------------------------|
B|--------------------------------------------------------------------------|
G|--------------------------------------------------------------------------|
D|-----12p11-----------------------------------------11---------------------|
A|-------------12~~h14p12---------------------------------------------------|
E|---------------------------14-14-14-14-14--12-12---------12---------------|

| /  slide up
| \  slide down
| h  hammer-on
| p  pull-off
| ~  vibrato
| +  harmonic
| x  Mute note
============================================================================
Comments