Third Day - God Of Wonders Chords & Tabs

 

God Of Wonders Chords & Tabs

Third Day Chords & Tabs

Version: 2 Type: Tab 0 ratings
1 star 2 stars 3 stars 4 stars 5 stars
comments

God Of Wonders Tab

   
God Of Wonders
Album: City On A Hill
Written by Marc Byrd and Steve Hindalong
Copyright Info: 2000 Pyanagrin Music(SESAC)

Tabbed by Corey Bock

*Capo 3* (all tab and chords relative to capo)

Chords
xx0233  Dsus4
022033  Em7
x32033  C2 (Cadd2)
320033  G
xx0232  D 
x02010  Am7
x02033  A7sus4
x32010  C
x54030  Dtriad (Dadd2add4)

INTRO: Dsus Em7 C2 

VERSE 1:
Dsus4 Em7 C2
Dsus4 Em7 C2
Dsus4 Em7 C2
Dsus4 Em7 C2

CHORUS:
G    Dsus4 D
A7sus4 C2
G    Dsus4 D
A7sus4  C2

CHORUS LEAD: play twice
  G                      Dsus4     
|-----3----2-----0-----------3----2-----0-----|
|---3---3----3-----3-------3---3----3-----3---|
|-0------------0-----0---2------------2-----2-|
|---------------------------------------------|
|---------------------------------------------|
|---------------------------------------------|
[ Tab from: http://www.guitartabs.cc/tabs/t/third_day/god_of_wonders_tab_ver_2.html ]
  A7sus4                 C
|-----3----2-----5-----------3----2-----0-----|
|---3---3----3-----3-------3---3----3-----3---|
|--------------0-----0----------------0-----0-|
|-2-------------------------------------------|
|------------------------3--------------------|
|---------------------------------------------|

BRIDGE 1  (Slide up from C to Dtriad and back to C)
C       Dtriad     C       Dtriad
C       Dtriad     C       Dtriad

FILL
    Dsus4    Em7        C2
e|-------7--------7----------7-------8-7---|
B|----8----8---8----8-----8----8---8-----8-|
G|--7--7-----7--7----7--7--7-----7---------| x2
D|-----------------------------------------|
A|-----------------------------------------|
E|-----------------------------------------| 

VERSE 2: same chords as VERSE 1
CHORUS
BRIDGE 1

BRIDGE 2 (with FILL)
Am7    C   Dtriad   Am7  (x3)            

SOLO
e|-------------------------------------------------------------|
B|-7/8-8-8-7---------------------------------------------------|
G|-----------7-9-7-7/9-9-9-7--------------------------------7--| x2
D|---------------------------7-7/9-9/10-10-10-9/5-5-7/2-2-0----|
A|-------------------------------------------------------------|
E|-------------------------------------------------------------|

CHORUS with changes
G    Dsus4 D
A7sus4 C2
G    Dsus4 D
A7sus4  C2
G    Dsus4 D
A7sus4 C2

BRIDGE 2 (x6)
Comments