Third Day - Communion Chords & Tabs

 

Communion Chords & Tabs

Third Day Chords & Tabs

Version: 1 Type: Tab

Communion Tab

   
Standard Tuning

Intro/chorus
     Gadd9      D   Dsus      A  Asus A9  D Dsus D
E --3----3-------x-x--x--------x-x--x-----x-x--x---|
A --0h2--2-------0-0--0--------0-0--0-----0-0--0---|
D --0----0-------0-0--0--------2-2--2-----0-0--0---|
G --0----0-------2-2--2--------2-2--2-----2-2--2---|  X2
B --3----3-------3-3--3--------2h3--0-----3-3--3---|
e --3----3-------2h3--2--------0-0--0-----2h3--2---|


Lead guitar intro/chorus
E -------------|
A -------------|
D -------------|
G -------------|  (play on all of the chorus' after the chords have progressed
B -----3-0-3---|    one time through)
e -2-0-------0-|


Verse 1
E ------------------------------------------------------------|
A ------------------------------------------------------------|
D ------------------------------------------------------------|
G ------------------------------------------------------------|
B --------------10-7---7-10-----------------------------------|
e -10------10------------------------10--10-10/12--12--12/14--|

E -------------------------------------|
A -------------------------------------|
D -------------------------------------|
G -------------------------------------|
B -----7-10-----------7-10-------------|
e ----------7-10-----------7-10--10/12-|

[ Tab from: http://www.guitartabs.cc/tabs/t/third_day/communion_tab.html ]
Verse 2
E --------------------------------------------------------|
A --------------------------------------------------------|
D --------------------------------------------------------|
G --------------------------------------------------------|
B --------------------------------------------------------|
e -10-10-9-7/5/7-------10-10-9-7/5--------5h7p5-----------|


E ---------------------------------------------------------------------------|
A ---------------------------------------------------------------------------|
D ---------------------------------------------------------------------------|
G ---------------------------------------------------------------------------|
B ---------------------------------------------------------------------10--8-|
e --5/10-10-9-10---10--10/12---12--12/14----15-14-12-14-12-10-9-10-9-7-------|


E ---------------------------------------------------------------------------|
A ---------------------------------------------------------------------------|
D ---------------------------------------------------------------------------|
G ---------------------------------------------------------------------------|
B -7----10---------------7----10----------7----10---------------7----10------|
e -----------7---10---------------7-7--------------7---10----------------7---|


E ---------------|
A ---------------|
D ---------------|
G ---------------|   (Long Slide up the neck)
B ---------------|
e -10------10/12-|

[listen to the song for strum patterns, but the chord changes are in order]