Third Day - Come On Back To Me Chords & Tabs

 

Come On Back To Me Chords & Tabs

Third Day Chords & Tabs

Version: 1 Type: Tab 0 ratings
1 star 2 stars 3 stars 4 stars 5 stars
comments

Come On Back To Me Tab

   
Come on Back to Me (solo)
Third Day
Wire

Heres the guitar solo. The chord sheet already on here is right for the rest.

b=bend
r=release
h=hammer-on
p=pull-off


e[----------7----------------|---------------------------------|
b[--------7---7--------------|---------------------------------|
g[--9b(11)-----------9-------|------7-9--9b(11)r(9)--7h9p7-----|
d[---------------7/9---7/9---|--7h9------------------------9---|
a[---------------------------|---------------------------------|
e[---------------------------|---------------------------------|


[ Tab from: http://www.guitartabs.cc/tabs/t/third_day/come_on_back_to_me_tab.html ]
e[----------7----------------|--10p7---------------------------|
b[--------7---7--------------|-------10p7----------------------|
g[--9b(11)-----------9-------|------------9b(11)r(9)--7h9p7----|
d[---------------7/9---7/9---|------------------------------9--|
a[---------------------------|---------------------------------|
e[---------------------------|---------------------------------|


e[--/--10--10-10--9----------|--15p12----------------------------------|
b[--/--10--10-10--9----------|--------15p12----------------------------|
g[--/--11--------------------|--------------14b(16)r(14)--12h14p12-----|
d[---------------------9-----|-------------------------------------14--|
a[---------------------9-----|-----------------------------------------|
e[---------------------7-----|-----------------------------------------|


e[--/--10--10-10--9----------|
b[--/--10--10-10--9----------|
g[--/--11--------------------|
d[---------------------4-4-4-|
a[---------------------4-4-4-|
e[---------------------2-2-2-|
Comments