Third Day - Believe Chords & Tabs

 

Believe Chords & Tabs

Third Day Chords & Tabs

Version: 2 Type: Tab 0 ratings
1 star 2 stars 3 stars 4 stars 5 stars
comments

Believe Tab

   
Song: Believe
Artist: Third Day
CD: Time
benJAMIN'

Intro:                     Verse Riff A:
	            E7                      		                A   G
e---------------|----------0---0-------3-0--0----------0---0-----------------------------------|
B---------------|----------3---3--x-x--0-0--0----------3---3--x-x------------------------------|
G---------------|----------1---1--x-x------------------1---1--x-x--2---------------------------|
D---------------|----------0---0--x-x------------------0---0--x-x--2---------------------------|
A-2p0-----------|----------2---2--x-x------------------2---2--x-x--0---------------------------|
E--------3vvv---|--0--0--------------------------0--0--------------------3vvv------------------|

Verse Riff B:
      E7                                        A7                      G
e---------0---0--------3--0---0---------0---0-----------------|
B---------3---3--x-x---0--0---0---------2---2--x-x---0--------|
G---------1---1--x-x--------------------0---0--x-x---0--------|
D---------0---0--x-x--------------------2---2--x-x---0--------|
A---------2---2--x-x--------------0--0--0---0--x-x------------|
E--0--0-------------------------------------------------------|

Verse 1
E7
Never mind all the things you heard about me
	        A  G   E7             A7       G
Never gonna understand it
E7
Everytime I've given you the truth
	        A   G         E7                                 A7        G
It's neve made a   bit of difference, no  no

Pre-Chorus
A		               G    			        F#
Dissapointment takes you,   then the doubt it breaks you
		             B
It's enough to make you cry

Chorus
E		    G
Always lookin for a sign
A	          C
Miraces won't change your mind
E		 G                      B7
Tell me how much evidence you need
E		  G
Turnin' truth into a lie
A		     C
Hardened heart and blinded eyes
E                          G               B7
All you need to do is just believe

Verse 2
Never mind what you think that you have seen
It all can change in just a moment
All the.....is all the proof you need
Why can't you just believe it

(Pre-Chorus)

(Chorus)
play fill 1 over the E chords play fill 2 right before solo, over the B7
[ Tab from: http://www.guitartabs.cc/tabs/t/third_day/believe_tab_ver_2.html ]
Solo
     C        A                     G
e---------------------------------------------------------------------------|   b = bend
B--5----------2---------------------0-----0---------------------------------|   r = return
G--7b9r7--5---4b6r4---2h4p2---2b4---2b4---2b4--(4)--(4)r2--0----------------|   h = hammer  on
D---------------------------------------------------------------------------|   p = pull off
A---------------------------------------------------------------------------|   ( ) = pick bent note
E---------------------------------------------------------------------------|   \ = slide

     C                        A                          B
e--------------------------------------------------------------------------|
B--5--------------2----------------4----4----4-----------------------------|
G--7b9r7--5h7p5---4b6r4---2h4p2----6b8--6b8--6b8--(8)r6--4-----------------|
D--------------------------------------------------------------------------|
A--------------------------------------------------------------------------|
E--------------------------------------------------------------------------|

   C            A                 G                    B
e------------------------------------------------------------------------------|
B--5------------2-----------------0--------------------4------4------4------/--|
G--7b9r7---5----4b6r4---2h4p2-----2b4--(4)--(4)r2--0---6b8---6b8---6b8------/--|
D------------------------------------------------------------------------------|
A------------------------------------------------------------------------------|
E------------------------------------------------------------------------------|

(Chorus)

Fill 1				                       Fill 2
e----------------------------------------------------|---------------------------------------------|
B----------------------------------------------------|---------7---------7---7-------7------7------|
G--2b--b--b4vvv-----OR-------------------------------|----9b11----9b11-------9b11---(11)---(11)----|
D---------------------------------7b--b--b9vvv-------|---------------------------------------------|
A----------------------------------------------------|---------------------------------------------|
E----------------------------------------------------|---------------------------------------------|

Chords:   E7: (020130)   A: (x02220)  A7: (x02020)  G: (320033)  C: (x32010)  B7: (x21202)

Any questions, comments, or death threats, e-mail me at electricpickboy@yahoo.com
Comments