Third Day - All The Heavens Chords & Tabs

 

All The Heavens Chords & Tabs

Third Day Chords & Tabs

Version: 4 Type: Tab 0 ratings
1 star 2 stars 3 stars 4 stars 5 stars
comments

All The Heavens Tab

Tabbed by : Jordan Selman


Hey guys, it didnt take me that long to figure out this song... but u pretty much have 
finger pick to play it. this tab is 100% accurate.


Standard tuning
capo at 8th fret

H- hammer on
P- pull off


e--------------X----------------------------------------|
b-----0----0---3-------------------0-------0------0--3--|
g--------0-----2--H4-P2-P0-H2-------------0--0----------|
d-H2-----------0-------------------------2--------------|
a----------------------------------2----2---------------|
e-----3-------------------------------------------------|

e-------------------------X----------X------------|
b--1------0------3--------2----------3------------|
g-----0------0---2----H2--3------2---0------------|
d----------------X--0-----0----0---0-0------------|
a--3------3------0--------0----------2------------|
e------------------------------------3------------|

e----------------X----------------------------------------|
b----------------3-----------------0--------0------0--3---|
g-----0---0------2--H4-P2-P0-H2------------0--0-----------|
d-H2----0---0----0------------------------2---------------|
a----------------------------------2----2-----------------|
e-----3---------------------------------------------------|

e-------------------------X----------X------------|
b--1------0------3--------2----------3------------|
g-----0------0---2----H2--3------2---0------------|
d----------------X--0-----0----0---0-0------------|
a--3------3------0--------0----------2------------|
e------------------------------------3------------|

e--X--2----------0----0-----0-----------0-----------X---3--2----------|
b--0--3----------------------------3----------3-----0---3--3----------|
g--2--2------------0-----0----0------0----0-----0---0---2--2----------|
d--0--0---------------------------------------------2---0--0----------|
a----------------3----3-----3------3----3-----3-----3-----------------|
e---------------------------------------------------------------------|
[ Tab from: http://www.guitartabs.cc/tabs/t/third_day/all_the_heavens_tab_ver_4.html ]
e--0----0-----0------3---2-------H2P0-----3-2-----------|
b--------------------1---3------------3-----------------|
g----0-----0----0----0---2-----2------------------------|
d--------------------2---0---0--------------------------|
a--3----3----3-------3----------------------------------|
e-------------------------------------------------------|

e--0----0----0---------0---------------------------------|
b-----------------3----------3-----0------0---0----1-----|
g----0----0----0----0----0-----0--------0---0------0--0--|
d-------------------------------------2------------2-----|
a--3----3----3----3----3-----3-----2---------------3-----|
e--------------------------------------------------------|

e--------------------X---------X------------------------|
b--0-------3---------3---------3------------------------|
g----0-----2----H2---2----2----0------------------------|
d----------X--0------0--0---0--0------------------------|
a--3-------0---------0---------2------------------------|
e------------------------------3------------------------| REPEAT ALL OF THIS
                                                         TWO MORE TIMES.
AFTER THE G CHORD ON THE THIRD TIME THROUGH IT GOES TO...

e--3--2----0----0----0---------0------------0-----------------|
b--3--3-------------------3---------3-------0-----0--0--------|
g--2--2------0----0----0----0----0----0-----0----0--0---------|
d--0--0-------------------------------------2---2-------------|
a----------3----3----3----3----3----3-------2-----------------|
e-------------------------------------------X-----------------|

e--X----------------------X----------X------------|
b--1------0------3--------3----------3------------|
g--0--0-----0----2----H2--2----2-----0-----0------|
d--2-------------X--0-----0--0---0---0----0-------|
a--3------3------0--------0----------2------------|
e--X----------------------X----------3------------|

e--X----------------------X----------X---|
b--1------0------3--------3----------3---|
g--0--0-----0----2----H2--2----2-----0---|
d--2-------------X--0-----0--0---0---0---|
a--3------3------0--------0----------2---|
e--X----------------------X----------3---|
Comments