Thin Lizzy - Whisky In The Jar Solo Chords & Tabs

 

Whisky In The Jar Solo Chords & Tabs

Thin Lizzy Chords & Tabs

Version: 1 Type: Tab 3 ratings
1 star 2 stars 3 stars 4 stars 5 stars
comments

Whisky In The Jar Solo Tab

Artist: Thin Lizzy
Song:  Whisky in the Jar
Album: Wild One
Tabbed by: Andrew age 15
Email: KurtsEmpathy@aol.com

Key:
h: hammer on
/: slide
^:bend
(): wich note too bend to

-------------------------------------------------------7--8--10--8--7h-8p-7---7--------------------
----------------7--8---------7-------------8-----------------------------------------10--8--7--8---
---7--7--9-------------9--------7--9---------------------------------------------------------------
---------------------------------------------------------------------------------------------------
---------------------------------------------------------------------------------------------------
---------------------------------------------------------------------------------------------------

-------7--8--10-----7--10--12--12--10-12--^14(15)14--12--10--12h-10p-12-----------------------------
--10------------------------------------------------------------------------------------------------
----------------------------------------------------------------------------------------------------
----------------------------------------------------------------------------------------------------
----------------------------------------------------------------------------------------------------
----------------------------------------------------------------------------------------------------

--7--10--8--7-----------------8h-7/5----------------------------------------------------------------
-----------------10--8--6--5------------8--6--5-----------------------------------------------------
--------------------------------------------------------7--5---4h-5--4h-5--4h-5--4h-5--4------------
----------------------------------------------------------------------------------------------------
----------------------------------------------------------------------------------------------------
----------------------------------------------------------------------------------------------------

---7--8--10--8--7h-8p-7--7------------------------7--8--10-------7--10--12--12--10--12--------------
---------------------------------------8--7--8--10--------------------------------------------------
----------------------------------------------------------------------------------------------------
----------------------------------------------------------------------------------------------------
----------------------------------------------------------------------------------------------------
----------------------------------------------------------------------------------------------------
[ Tab from: http://www.guitartabs.cc/tabs/t/thin_lizzy/whisky_in_the_jar_solo_tab.html ]
---^14(15)14--12--10-12h10p12--------7--10--8--7----------------------------------------------------
---------------------------------------------------------------10--8--6--5------5h6h8p6--5----------
----------------------------------------------------------------------------------------------------
----------------------------------------------------------------------------------------------------
----------------------------------------------------------------------------------------------------
----------------------------------------------------------------------------------------------------

---8---10-------12----------------------------------------------------------------------------------
-----5------8---------------------3----3-----5----3---1-----0------------8--------------------------
----------------------------9-------4--- 4---- 5----4---2-----0---------7-----^10(12)---------------
----------------------------------------------------------------------------------------------------
----------------------------------------------------------------------------------------------------


----------------------------------------------------------------------------------------------------
------------------------------8h10p8---------------8h10p8-------------------------------------------
--^10(12)-------7---7h9--------------9h7p9----------------------------------------------------------
----------------------------------------------------------------------------------------------------
----------------------------------------------------------------------------------------------------
----------------------------------------------------------------------------------------------------

----------------------------------------------------------------------------------------------------
--------------------------------------------------------------------^15(17)-------------------------
-----6--5-----7---5----10----9-----12----10----14---12----------------------12----------------------
----------------------------------------------------------------------------------------------------
----------------------------------------------------------------------------------------------------
----------------------------------------------------------------------------------------------------

-----------------------------------------------------------------------------------------------15---
--------------------------------------------------^15(17)------^15(17)--------15---17---------------
-------12-----------------------12---14-------------------------------------------------------------
------------12h14---12---10-------------------------------------------------------------------------
----------------------------------------------------------------------------------------------------


---^17(19)--17h-15--------------------------15h-17p-15/---------------------------------------------
-----------------------------------15h-17-----------------------------------------------------------
----------------------------------------------------------------------------------------------------
----------------------------------------------------------------------------------------------------
----------------------------------------------------------------------------------------------------
----------------------------------------------------------------------------------------------------

Any questions or corrections please Email me at KurtsEmpathy@aol.com thanks hope you enjoy this tab,
I think it's pretty accurate well considering only 15 yrs old it is. ENJOY and keep playing!!!














Comments