Thin Lizzy - Whiskey In The Jar Chords & Tabs

 

Whiskey In The Jar Chords & Tabs

Thin Lizzy Chords & Tabs

Version: 6 Type: Tab 0 ratings
1 star 2 stars 3 stars 4 stars 5 stars
comments

Whiskey In The Jar Tab

   
Band:Thin Lizzy
Song: Whiskey in the Jar
Album:Vagabonds
Email greenday_rhcp2002@yahoo.co.uk

Intro
|-8---8--8\7--5--7----7--7\5----------------------|
|----------------------------8--8---8\5-----------|
|----------------------------------------7\5------|
|---------------------------------------------7-6-|
|-------------------------------------------------|
|-------------------------------------------------|


Intro cont
|---------------------------------------------------------|
|---------------5/8\5-------------------------------------|
|-----------4/7-------7-9--7--6--5------------------------|
|-5--7\5/7--------------------------9-7-6-5---------------|
|-------------------------------------------7-6-5---------|
|-------------------------------------------------8-7-6\5-|


Inturlude 1                         end of inturlude
|----------------------------|    |-----------------------|
|---------7-8--------------8-|    |-----------3---------0-|
|-7-7-7/9------9--11--7--9---|    |-0-0-0-2-0---0-2-4-0---|
|----------------------------|    |-----------------------|
|----------------------------|    |-----------------------|
|----------------------------|x4  |-----------------------| x1


Verses...
  G                                Em
|-----------------------------------------------------------------|
|-3---3---3---5---3---0---0---0-3---5---5---5---7\5----0---0----0-|
|--0---0---0---0---0---0---0---------0---0---0------0--0-0-0--0---|
|-----------------------------------------------------------------|
|-----------------------------------------------------------------|
|-----------------------------------------------------------------|

  C                                 G
|-----------------------------------------------------------------|
|-5--5--5---7---8---8-8-7---5--3--3---5---8---8-5-3---3-3-3-3-3-3-|
|--0--0--0---0--0-0-0-0-0-0-0-------0--0--0-0-0---0-0-0-0-0-0-0-0-|
|-----------------------------------------------------------------|
|-----------------------------------------------------------------|
|-----------------------------------------------------------------|

  G                                 Em
|----------------------------------------------------------------------|
|-3---3---3--5--3---3---0---0---0-3--5---5---5---7---5---0-0-0-0-0-0-3-|
|-0-0-0-0-0--0--0-0-0-0-0-0-0-0-0----0-0-0-0-0-0-0-0-0-0-0-0-0-0-0-0---|
|----------------------------------------------------------------------|
|----------------------------------------------------------------------|
|----------------------------------------------------------------------|

  C                                 G
|------------------------------------------------------------------|
|-5-5-5--7---8---8-8-7--5-3-3-----5--8--8--7--5--3--3---3---3----3-|
|-0-0-0--0-0-0-0-0-0-0------0--0--0--0--0--0-----0---0---0---0---0-|
|------------------------------------------------------------------|
|------------------------------------------------------------------|
|------------------------------------------------------------------|



Chorus
 D                      C                         
|--------------------------------------------------------------|
|---------------------------5-5--5--5--------------------------|
|-7--2-2-2-2-2-4-4-4----5-5---5--5--5---8---8---8---8---8--8---|
|-0--0-0-0-0-0-0-0-0--0---------------9---9---9---9---9--9---9-|
|--------------------------------------------------------------|
|--------------------------------------------------------------|

 C                      G
|--------------------------------------------------|
|-8\7-10--8-13-13-13--3---0---0----------0-0-0-0-0-|
|-----------14-14-14---0---0---0--2-2--0-0-0-0-0-0-|
|--------------------------------------------------|
|--------------------------------------------------|
|--------------------------------------------------|


Interlude 2
 Em                     G
|-------------------------------------------------------------|
|-------------------------------------------------------------|
|-0--0--0-0-0--0--0-0-0-0-0-0--0-0-0-0-0-0-0-0--0-0-0-0-0-0-0-|
|-0--0--0------0--0-----0-0-0--0-----0-0-----0--0-------------|
|-------------------------------------------------------------|
|-------------------------------------------------------------|
[ Tab from: http://www.guitartabs.cc/tabs/t/thin_lizzy/whiskey_in_the_jar_tab_ver_6.html ]
 Em                      G
|--------------------------------------------------------------------|
|--------------------------------------------------------------------|
|--------------------------------------------------------------------|
|0--0---0-0-0-0---0-0-0-0-0-0-0-0-0-0---0-0-0-0-0-0-0-0-0-0-0-0-0-0-0|
|0-0--0-0-----0-0-0-0-0-----0---0-0-0-0-0-0-----0-0-0-0-0-0---0-0-0-0|
|--------------------------------------------------------------------|

 Em
|--------------------------------------------7--8-|
|--------------------------------------------x----|
|-0---0--0--0--0--0-0-0--0---0-0-0-0--0--0-0-0--0-|
|-0---0--0--0--0----0----0---0-0---0--0--0---0----|
|-------------------------------------------------|
|-------------------------------------------------|


Solo(thin lizzy)
|-10-8-7--7-8-7----7-----------7-8b-------12-12---12-14b-12----|
|---------------10---10-8-8-10------12-15------15-----------15-|
|--------------------------------------------------------------|
|--------------------------------------------------------------|
|--------------------------------------------------------------|
|--------------------------------------------------------------|

Solo Cont
|-12---12-------------------------------------------|
|---15---12-15-13-12-10-------13-12-10--------------|
|-----------------------12-10----------12-10-9----5-|
|----------------------------------------------12---|
|---------------------------------------------------|
|---------------------------------------------------|

Solo Cont
|-------------------7-8-10-7-8-7----7------------7-8b-|
|--------------------------------10--10-8-7-8-10------|
|-4b-4b-4b-4b-4b-4b-----------------------------------|
|-----------------------------------------------------|
|-----------------------------------------------------|
|-----------------------------------------------------|

Solo Cont
|-7-8-12-12----12-14b--12----12---12------------------------|
|-----------15------------15---15----12-15-13-12-10---------|
|---------------------------------------------------12-10-9-|
|-----------------------------------------------------------|
|-----------------------------------------------------------|
|-----------------------------------------------------------|

 Solo Cont
|-----------------------------------------------------------|
|------------13----15----17---12--------13-12-10-10-8-10-12-|
|-9-10-12-10----12----12---12-12---------x--x--x--x-x--x--x-|
|-----------------------------12--12/14-14-12-10-10-8-10-12-|
|-----------------------------------------------------------|
|-----------------------------------------------------------|

 Solo Cont
|-------3-5b-5b--5-3-----3-5-3-------3-5-3---------------------|
|-3-3-5--------------5-3-------3-5-3-------5-3-2-1-3-1/5-3-4/6-|
|-0-0----------------------------------------------------------|
|--------------------------------------------------------------|
|--------------------------------------------------------------|
|--------------------------------------------------------------|

 Solo Cont
|---------------------12----8---3-3------------------15-17-15-|
|-5b--6-7-8--6-8/10-8----8-10-8-5-3---13-15b-15b-15b----------|
|-----------------------------------5-------------------------|
|-------------------------------------------------------------|
|-------------------------------------------------------------|
|-------------------------------------------------------------|

 Solo Cont            THIS part wood help to have 2nd guitar
|----------15-17-15---------2-3---2-----3----------2-3---2---|
|-17-15-17----------3-3-3-5---5-5---3-5----3-3-3-5---5-5---3-|
|-------------------4-4-4-5-7---5-7-4-5-7--4-4-4-5-7---5-7-4-|
|------------------------------------------------------------|
|------------------------------------------------------------|
|------------------------------------------------------------|

 Solo End
|---3--------3---2-----3--------------------------------|
|-5----3-3-3-5-5---3-5--------------3-------------------|
|-5-7--4-4-4---5-7-4-5-7---0-0-0-2b---0-2-0 -2b-0-0-0-0-|
|-------------------------------------------------------|
|-------------------------------------------------------|
|-------------------------------------------------------|


Guess il call this the outro
|-------------------------------------------------|
|-------------------------------------------------|
|-0--0--0--0--0--0--0--0--0--0--0--0--0--0--0--0--|
|---0-0--0--0--0--0--0--0--0--0--0--0--0--0--0--0-|
|-------------------------------------------------|
|-------------------------------------------------|

 
|-----------------------3-|
|-----------3-------------|
|-0-0-0-2-4---0-2-0-2-4---|
|-------------------------|
|-------------------------| (Keep repeatin and fade out)
|-------------------------|


Took me ages to tab great song...one of the best bands..
listen to song for timing easy to findcomments to email

Peace...rock on with this song
Comments