Thin Lizzy - Whiskey In The Jar Chords & Tabs

 

Whiskey In The Jar Chords & Tabs

Thin Lizzy Chords & Tabs

Version: 5 Type: Tab 0 ratings
1 star 2 stars 3 stars 4 stars 5 stars
comments

Whiskey In The Jar Tab

e|-7-8-10-8-7h8p7---7-------------7-8-10--7-10-10/12-12-10-12-12/15-12-10----|
B|---------------10---10-8-7-8-10--------------------------------------------|
G|---------------------------------------------------------------------------|
D|---------------------------------------------------------------------------|
A|---------------------------------------------------------------------------|
E|---------------------------------------------------------------------------|
                              1_______________________________*return to start 
e|-12p10h12-7-10-8-7----------|-8p7------------------------------------------|
B|-------------------10-8-----|-----10-8-------------------------------------|
G|------------------------10-9|----------10-9-7-5-4b5-4b5-4b5-4b5-4----------|
D|----------------------------|----------------------------------------------|
A|----------------------------|----------------------------------------------|
E|----------------------------|----------------------------------------------|
  2____________________________________________________________ 
e||---------8---10---12------------------------------------------------------|
B||-------8---8----8-----12-12-12h13-12-10-8/10-10/12-----8-10b11-10b11-11r10|
G||8h9h10---------------------------------------------7-9--------------------|
D||----------------------12-12-12h14-12-10-9/10-10/12------------------------|
A||--------------------------------------------------------------------------|
E||--------------------------------------------------------------------------|

e|---------------------------------------------------------------------------|
B|-8-------8h10p8-------8h10p8-----------------------------------------------|
G|---9-7h9--------9-7h9--------9-7-7-6-5-7-5-7/9-7-9/10-9-10/12-10-12/14-12--|
D|---------------------------------------------------------------------------|
A|---------------------------------------------------------------------------|
E|---------------------------------------------------------------------------|

e|-12------------------------------------------------15-17b19-15-------------|
B|---------------------------13-15b17-15b17r15-15-17-------------17-15h17----|
G|---12-14-12-12h14p12-12-14-------------------------------------------------|
D|------------12h14p12-------------------------------------------------------|
A|---------------------------------------------------------------------------|
E|---------------------------------------------------------------------------|

e|-15h17r15------------------------------------------------------------------|
B|---------------------------------------------------------------------------|
G|---------------------------------------------------------------------------|
D|---------------------------------------------------------------------------|
A|---------------------------------------------------------------------------|
E|---------------------------------------------------------------------------|

[ Tab from: http://www.guitartabs.cc/tabs/t/thin_lizzy/whiskey_in_the_jar_tab_ver_5.html ]
Comments