Thin Lizzy - Whiskey In The Jar Chords & Tabs

 

Whiskey In The Jar Chords & Tabs

Thin Lizzy Chords & Tabs

Version: 4 Type: Tab 0 ratings
1 star 2 stars 3 stars 4 stars 5 stars
comments

Whiskey In The Jar Tab

   
this is a fairly easy song, released in the 70s...i had been lookimg for this tab for ages...enjoy


e---------------0-2-3-0-2-----3---
B----------3-3------------3/5-----
G---------------------------------
D-5-4-2---------------------------X3 then...
A-5-4-2---------------------------
E-3-2-0---------------------------

[ Tab from: http://www.guitartabs.cc/tabs/t/thin_lizzy/whiskey_in_the_jar_tab_ver_4.html ]
e------------------------------------------
B------------------------------------------
G--------0-0-2-0-3-0-2-0-4-0---------------
D-5-4-2------------------------------------
A-5-4-2------------------------------------
E-3-2-0------------------------------------



Easy to play...just use hammerons and play it quickly

the chord pattern for the song is simply

G Em C G   x2

G D G C G D G

this is my first tab so any questions, complaints, comments? just e-mail me to lukekingham@hotmail.com

for more on thin lizzy check out roisindubh.com which is named after Phill Lynott
and is the official homepage...i think
Comments