Thin Lizzy - Whiskey In The Jar Chords & Tabs

 

Whiskey In The Jar Chords & Tabs

Thin Lizzy Chords & Tabs

Version: 3 Type: Tab 0 ratings
1 star 2 stars 3 stars 4 stars 5 stars
comments

Whiskey In The Jar Tab

BAND: Thin Lizzy
SONG: Whiskey In The Jar
Tabbed by: Irish man..Brian McAuley..(bri3_16@hotmail.com)

This tuck me a long time to figure out and im sure its the best tab of it so far.
Just try it and see.i made it very easy to play.cause i did.

INTRO

e|-8---8-8/7p5---7---7-7p5----------|---3p0---------------------------------|
B|--------------------------8/10----|------3p0------------------------------|
G|----------------------------------|---------3/2p0-------------------------|
D|----------------------------------|---------------------------------------|
A|----------------------------------|---------------------------------------|
E|----------------------------------|---------------------------------------|


e|---------------------0h3p0--|---------------------------------------------|
B|--------------0-3-----------|-3-2-1-0-------------------------------------|
G|---4p2p0--2-----------------|---------2-1-0-------------------------------|
D|----------------------------|---------------4-3-2-1-----------------------|
A|----------------------------|-----------------------4-3-2/1---------------|
E|----------------------------|---------------------------------------------|


MAIN RIFF

Play this 3 times and then.....This.
e|------0h2h3---0-2--------3--|---------------------------------------------|
B|-3-3---------------3/5------|----------3----------------------------------|
G|----------------------------|--0-0-2h4---0-2-0/4-0------------------------|
D|----------------------------|---------------------------------------------|
A|----------------------------|---------------------------------------------|
E|----------------------------|---------------------------------------------|


SOLO

good bit needs alot of practice to get right.
e|--------------------------------------------------------------------------|
B|-12-13-15--13--12h13p12----12----------------12-13-13/15--12-15-----------|
G|------------------------14----14-12-11-12-14------------------------------|
D|--------------------------------------------------------------------------|
A|--------------------------------------------------------------------------|
E|--------------------------------------------------------------------------|
[ Tab from: http://www.guitartabs.cc/tabs/t/thin_lizzy/whiskey_in_the_jar_tab_ver_3.html ]
e|-12-12----12---14/15\12--10-12p10-12----10--------------------------------|
B|-------15----------------------------12----13-12-10-----------------------|
G|----------------------------------------------------12-10-9---------------|
D|--------------------------------------------------------------------------|
A|--------------------------------------------------------------------------|
E|--------------------------------------------------------------------------|

e|--------------------------------------------------------------------------|
B|-13\12p10\8---------------------------------------------------------------|
G|------------9-8\7---6----4b-b-b-b-r---------------------------------------|
D|--------------------------------------------------------------------------|
A|--------------------------------------------------------------------------|
E|--------------------------------------------------------------------------|
End of solo.


This bit is in the song your find it for your self.
e|-------6-7-6-7--5---------------------------------------------------------|
B|---5-8-------------8------------------------------------------------------|
G|-7------------------------------------------------------------------------|
D|--------------------------------------------------------------------------|
A|--------------------------------------------------------------------------|
E|--------------------------------------------------------------------------|



                     LYRICS

As I was goin' over the Cork and Kerry mountains                            
I saw Captain Farrell and his money he was countin'                          
I first produced my pistol and then produced my rapier                       
I said stand-o and deliver or the devil he may take ya

               
chorus: Musha ring dum a doo dum a da
        Whack for my daddy-o
        Whack for my daddy-o
        There's whiskey in the jar-o

I took all of his money, and it was a pretty penny
I took all of his money and I brought it home to Molly
She swore that she'd love me, never would she leave me
But the devil take that woman for you know she tricked me easy

chorus:

Being drunk and weary I went to Molly's chamber
Takin' my money with me and I never knew the danger
For about six or maybe seven in walked Captain Farrell
I jumped up, fired off my pistols and I shot him with both barrels

chorus:

Now some men like the fishin' and some men like the fowlin'
And some men like ta hear a cannon ball a-roarin'
Me I like sleepin' specially in my Molly's chamber
But here I am in prison, here I am with a ball and chain, yeah

Ok enjoy this cool tab im sure its 100% correct.ENJOY
Comments