Thin Lizzy - Waiting For An Alibi Chords & Tabs

 

Waiting For An Alibi Chords & Tabs

Thin Lizzy Chords & Tabs

Version: 1 Type: Tab 0 ratings
1 star 2 stars 3 stars 4 stars 5 stars
comments

Waiting For An Alibi Tab

   
#----------------------------------PLEASE NOTE---------------------------------#
#This file is the author's own work and represents their interpretation of the #
#song. You may only use this file for private study, scholarship, or research. #
#------------------------------------------------------------------------------##

Thin Lizzy – Waiting for an Alibi 
Submitted by: Declan Bradley, Letterkenny, Co. Donegal, Ireland
(Just the twin guitar parts, I don’t have time to submit my version of the solo, I’ll do that at a later date)

Twin Guitar (As I do it)
Guitar 1:                            
1:|-12-11-9--------9---9-9---11----9------------------------------------------|
2:|-----------------------------------------12--------------------------------|
3:|---------------------------------------------------------------------------|
4:|---------------------------------------------------------------------------|
5:|---------------------------------------------------------------------------|
6:|---------------------------------------------------------------------------|
               
1:|---16---14---12-------12—12—12---14---12---11------------------------------|
2:|---------------------------------------------------------------12----------|
3:|---------------------------------------------------------------------------|
4:|---------------------------------------------------------------------------|
5:|---------------------------------------------------------------------------|
6:|---------------------------------------------------------------------------|


Guitar 2:                            
1:|---------------------------------------------------------------------------|
2:|----9----7-----------------------------------------------------------------|
3:|---------------9-----------9---9-9---11---9----8---------------------------|
4:|---------------------------------------------------------------------------|
5:|---------------------------------------------------------------------------|
6:|---------------------------------------------------------------------------|

1:|---------------------------------------------------------------------------|
2:|--------------------------------------12-----------------------------------|
3:|---13---11----13-----13-13-13-----13--11-----------------------------------|
4:|-----------------------------------------------------13--------------------|
5:|---------------------------------------------------------------------------|
6:|---------------------------------------------------------------------------|


Twin Guitar Harmony Part (AGAIN...As I do it)
Guitar 1:                            
1:|---------------------------------------------------------------------------|
2:|----------12-14-12-------------12-14-12------------------------------------|
3:|--13-14------------14-13-14-------------14---------------------------------|
4:|---------------------------------------------------------------------------|
5:|---------------------------------------------------------------------------|
6:|---------------------------------------------------------------------------|

1:|--------------12-----------------------------------------------------------|
2:|----------12----14-12-14-12------------------------------------------------|
3:|--13-14-------------------------14-13-11-----------------------------------|
4:|----------------------------------------------14---------------------------|
5:|---------------------------------------------------------------------------|
6:|---------------------------------------------------------------------------|
[ Tab from: http://www.guitartabs.cc/tabs/t/thin_lizzy/waiting_for_an_alibi_tab.html ]
Guitar 2:                            
1:|---------------------------------7-----------------------------------------|
2:|---7-9-10-9-7---7-9-10-9-7---7-9---10-9-10-9-7-----------------------------|
3:|-9------------9------------9-------------------9-6-------------------------|
4:|---------------------------------------------------9-----------------------|
5:|---------------------------------------------------------------------------|
6:|---------------------------------------------------------------------------|

Guitar 3:                            
1:|-------12-14-12----------12-14-12----------12-16-14-12-14-12---------------|
2:|-12-14----------14-12-14----------14-12-14-------------------14-12---------|
3:|-------------------------------------------------------------------14—13---|
4:|---------------------------------------------------------------------------|
5:|---------------------------------------------------------------------------|
6:|---------------------------------------------------------------------------|

Guitar 4:                            
1:|-------16-17-16----------16-17-16----------16-19-17-16-17------------------|
2:|-17-19----------19-17-19----------19-17-19----------------19-17------------|
3:|----------------------------------------------------------------18-16------|
4:|---------------------------------------------------------------------------|
5:|---------------------------------------------------------------------------|
6:|---------------------------------------------------------------------------|


---- BASS LINE ---- 

RIFF 1 RIFF 2
G |-----------------------|--------------------------------------|
D |-----------------------|--------------------------------------|
A |--2-4-----------2------|---4-----2-4--------------------------|
E |------0-0-0-0-4--------|-----0-4-----0-4-4--------------------|

PRE-CHORUS
G |--------------------------------------------------------------|
D |--------------------------------------------------------------|
A |--4-4-4-4-4-----------4-4-4-4-4---------0-0-2-2---------------|
E |------------4-4-4-4-4-----------2-2-4-4-----------------------|

G |--------------------------------------------------------------|
D |--------------------------------------------------------------|
A |--4-4-4-4-4-----------0-0-0-0-0-2-2-2-2-2-2-------------------|
E |------------4-4-4-4-4-----------------------------------------|

CHORUS
G |--------------------------------------------------------------|
D |--------------------------------------------------------------|
A |-7-7-7-7-7-7-7-7-7-7-7-5-4-------------------0-2--------------|
E |---------------------------5-4-4-4-4-4-4-4-4------------------|

Ending Solo
G |--------------------------------------------------------------|
D |--------------------------------------------------------------|
A |-7-7-11-11-12-12-14-14-7-7-11-11-12-12-14-----------------0-2-|
E |------------------------------------------4-4-4-4-4-4-4-4-----|

Ending 
G |--------------------------------------------------------------|
D |--------------------------------------------------------------|
A |----4---2-----------------------------------------------------|
E |-------------4---2---0----------------------------------------|



------- Twin Guitar Harmony part--------
      ------- Twin Guitar --------

END!

(Break the song down into it's chord arrangements)

Verse: 
C#    E    G#    B 
C#    E    G#    G#

Pre Chorus: 
C#    G#   C#    F#    C#    G#    A   B

Chorus: 
E      G#     A      B   

Ending: 
C#      B     G#    F#     E
Comments