Thin Lizzy - The Cowboy Song Chords & Tabs

 

The Cowboy Song Chords & Tabs

Thin Lizzy Chords & Tabs

Version: 1 Type: Tab 0 ratings
1 star 2 stars 3 stars 4 stars 5 stars
comments

The Cowboy Song Tab

   
#----------------------------------PLEASE NOTE---------------------------------#
#This file is the author's own work and represents their interpretation of the #
#song. You may only use this file for private study, scholarship, or research. #
#------------------------------------------------------------------------------##

artist:  thin lizzy
song:    the cowboy song
tabed by:pearski(@hotmail.com)


For the first verse its these barre chords:

G# Cm Fm  F C# 

the f and c# are played one after another

then the distorted guitar comes playin this:
       
e--------------------------------------------
B--99-----9---------9----------9--------9----
G--------------------------------------------
D-----11-----11--11----11---10---10--10---10-
A--------------------------------------------
E--------------------------------------------


e--------------------------------------------
B--------------------------------------------
G--------------------------------------------
D-8---10--8----------------------------------
A-------------11-11--11--11------------------
E--------------------------------------------

if anyone knows the solos of this song, well then
you are a better man then I, and please email moi
them.

[ Tab from: http://www.guitartabs.cc/tabs/t/thin_lizzy/the_cowboy_song_tab.html ]
#----------------------------------PLEASE NOTE---------------------------------#
#This file is the author's own work and represents their interpretation of the #
#song. You may only use this file for private study, scholarship, or research. #
#------------------------------------------------------------------------------##

From: Idar "Wild One" Wiik (Cheabz) (idarwiik@hotmail.com)

Song:   Brought Down
Artist: Thin Lizzy
Album:  Shades of a Blue Orphanage (released: 3/1972)
Lyrics: Provided by www.sing365.com (with some corrections by myself)

Tuning: EADGBe (normal)

Hi again.

This is my second Thin Lizzy tab I am providing www.guitartabs.cc with (and hopefully it will be more ;D).
Brought down is a beautiful song (one of my favourites) and I hope you'll enjoy it too.


Intro:
Listen to the song to figure out the rythm at the intro (cause it's hard to explain for a guy who
dont know notes and all that other crap).

                   |(This little riff is also A*)
e|-0---0---0-------|-------------0-------|
B|-0---0---0-------|-0---2---3---x-------|
G|-1---2---4-------|-2---2---2---2--6-4--|
D|-2---2---2--7-6--|-2---2---2---2--6-4--|
A|-2---2---2--7-6--|-0---0---0---0--4-2--|
E|-0---0---0--5-4--|---------------------|

Riff1:
e|------------------------------------------------|
B|------------------------------------------------|
G|------------------------------------------------|
D|--------------------5---------7-7-7-6-----------|
A|---7-6-7--7-6-7-6-7----7-6-7----------7---------|
E|----------------------------------------7-------|

After the second chorus, this riff is played 3 times, and then its solo time (I havent tabbed the solo yet,
but I may do it soon). The solo plays over the chords in one verse and one chorus, and then Riff1 comes in again.
The solo-guitar continues to play the rest of the song, and fades out together with the rest of the band.
Comments