Thin Lizzy - Still In Love With You Chords & Tabs

 

Still In Love With You Chords & Tabs

Thin Lizzy Chords & Tabs

Version: 2 Type: Bass Tab 0 ratings
1 star 2 stars 3 stars 4 stars 5 stars
comments

Still In Love With You Bass Tab

Artist:Thin Lizzy
Song:Still In Love With You [Live Version]
Tabbed By:Gary Hricewich
E-mail:snapper2001@msn.com
I Tabbed This Song In Loving Memory,For My Sweetie,Diana Losee,
Who Died Of Cancer On 6/1/02 @ The Age Of 42
[ Tab from: http://www.guitartabs.cc/tabs/t/thin_lizzy/still_in_love_with_you_btab_ver_2.html ]
                                       
G--------|-------|-----------6-8-11-13-|
D--------|-------|-----6-8-9-----------|
A--------|-------|-7-9-----------------|
E---4----|-0-----|---------------------|
                                        
                  Verse                  Is This The End                       
G-------|------|---------|----|----|----|----------------|-|
D-------|------|---------|----|----|----|----------1-4-2-|-|
A-------|------|-4-6-----|-4--|----|-2--|--------2-------|-|
E---4---|-4----|-----4---|----|-2--|----|----------------|-|
                                                            
  1st Lead/ Use Blues Scales For Runs Between Notes
G-----------|---------|---------|---------------|-|
D-----------|---------|---------|---------------|-|
A-----------|-4-----4-|---------|-2------2------|-|
E---4-----4-|---------|-2-----2-|---------------|-|
                                                   
  2nd Lead/ Use Blues Scales For Runs Between Notes
G----------|---------|----|----|----|----|----|----|-|
D----------|---------|----|----|----|----|----|----|-|
A----------|-4-----4-|-6--|-7--|-6--|-7--|-6--|-7--|-|
E---4----4-|---------|----|----|----|----|----|----|-|
                                                      
                            Variation                      
G------------|----------|----------|------------|
D------------|----------|----------|------14-14\|
A---2-2--2-2-|-7-7--7-7-|-2-2--2-2-|-7-7--------|
E------------|----------|----------|------------|
                                                 
   End                       
G-------------6-8-11-13-|
D-------6-8-9-----------|
A---7-9-----------------|
E-----------------------|
Comments