Thin Lizzy - Still In Love With You Chords & Tabs

 

Still In Love With You Chords & Tabs

Thin Lizzy Chords & Tabs

Version: 1 Type: Bass Tab 0 ratings
1 star 2 stars 3 stars 4 stars 5 stars
comments

Still In Love With You Bass Tab

Still in Love With You
(live version)
by Alex Huth (not quite complete)

Intro:	
G|-------------------------1--------------------------
D|---------------------1-4----------------------------
A|-4-------------1-2-4-----------------------------4-6
E|------0--0-2-4----------------------4-4--4-4--4-4---


Verse:
G|------------------------------(4-1)-----------------
D|----------4-4----------------------4-4--------------
A|------4-4-----2---2-1------4-4----------2---2-1-----
E|-4-4------------------4-4---------------------------

blah blah blah...
(variation)
G|----------------------------------------------------
D|-----------------2-4-4--4-1-------------------------
A|--------2-4-4--4------------2---2-1-----------------
E|-4-4--4---------------------------------------------

end:				"still in love w/ ..."
G|----------------------------------------------------
D|-----------4-4-----1-4------------------------------
A|------4-4--------2----------------------------------
E|-4-4-------------------0----------------------------

repeat verse & variatons for a bit, until...
[ Tab from: http://www.guitartabs.cc/tabs/t/thin_lizzy/still_in_love_with_you_btab.html ]
guitar solo part:
G|----------------------------------------------------
D|----------------------------------------------------
A|-----4-6-----4-6-----4-6-4-4-4-6-4-4-4-6-----4-6----
E|-4-4-----4-4-----4-4---------------------2-2-----2-2

G|----------------------------------------------------
D|-----------------------6-6--6-4----6-6--6-4---------
A|-4-6-2-2-4-6-2---2-1------------6-----------6--4-4--
E|----------------------------------------------------

G|----------------------------------------------------
D|-6-4---------6-4---------6-4-------6-4---------6-4--
A|-----6--4-4------6-----------6---------6--2-2------6
E|--------------------2-2--------2-2------------------

G|---------------------------------6--4---------------
D|-6-4-----------------------4---------6-4------------
A|-----6--2---2-1------2-4-6-----4---------6------1-4-
E|-----------------4-4------------------------2-2-----

G|----------4-----------------------------------------
D|---4--------6-4-------------------------------------
A|-6----2---------6-1---------------------------------
E|--------------------4-------------------------------

repeats, goes back to verse.  Not quite sure from this 
point on... good luck w/ it tho.
Comments