Thin Lizzy - Sarah Chords & Tabs

 

Sarah Chords & Tabs

Thin Lizzy Chords & Tabs

Version: 2 Type: Tab 0 ratings
1 star 2 stars 3 stars 4 stars 5 stars
comments

Sarah Tab

Sarah Riff by Thin Lizzy

 E----------------------------------------------------------------|
 B--12--13--15--13--12-------13--12-------------------------------|
 G---------------------12-----------12--12--12--14----------------|
 D------------------------14--------------------------------------|
 A----------------------------------------------------------------|
 E----------------------------------------------------------------|


 E----------------------------------------------------------------|
 B--12--13--15--13--12-------13--12-------------------------------|
 G---------------------12-----------12--12--12--------------------|
 D------------------------14-------------------12-----------------|
 A----------------------------------------------------------------|
 E----------------------------------------------------------------|

[ Tab from: http://www.guitartabs.cc/tabs/t/thin_lizzy/sarah_tab_ver_2.html ]
 E----------------------------------------------------------------|
 B--12--12--13--15--17--17--15--15--13--13--12--------------------|
 G---------------------------------------------12--14--12---------|
 D--------------------------------------------------------14--12--|
 A----------------------------------------------------------------|
 E----------------------------------------------------------------|


 E----------------------------------------------------------------|
 B--12--12--13--15--17--17--15--15--13--13--12--------------------|
 G---------------------------------------------12--14-------------|
 D----------------------------------------------------------------|
 A----------------------------------------------------------------|
 E----------------------------------------------------------------|

 Please be kind, it is my first attemp
Comments