Thin Lizzy - Rosin Dubh (black Rose) A Rock Legend Chords & Tabs

 

Rosin Dubh (black Rose) A Rock Legend Chords & Tabs

Thin Lizzy Chords & Tabs

Version: 1 Type: Bass Tab 0 ratings
1 star 2 stars 3 stars 4 stars 5 stars
comments

Rosin Dubh (black Rose) A Rock Legend Bass Tab

   
#----------------------------------PLEASE NOTE---------------------------------#
#This file is the author's own work and represents their interpretation of the #
#song. You may only use this file for private study, scholarship, or research. #
#------------------------------------------------------------------------------##

               RÓISÍN DUBH (BLACK ROSE): A ROCK LEGEND (Bassline)
                            As recorded by Thin Lizzy
                 (From the 1979 Album BLACK ROSE: A ROCK LEGEND)

Words by Philip Lynott, F. McPeak, trad.

Music by Philip Lynott, Gary Moore, F. McPeak, trad. arr.
Transcribed by pykli

Gtr I (Eb Ab Db Gb) - 'Bass'

   Intro
    Q.=93
   9/8                  12/8
    Gtr I
    E. S E E E E E E E   H.      +Q.   +E  E E
||---------------------|-----------------------|
||o--------------------|---------------------4-|
||o----------------2-3-|-5-------(5)---(5)-7---|
||--3--3-3-3-2-3-5-----|-----------------------|


 9/8                   12/8
  E S S E E E E E E E   H.      +Q.   +E  Q
|---------------------|------------------------||
|-5-5-5-5-5-4---------|-----------------------o||
|-------------7-5-7-5-|-----------------------o||
|---------------------|-7-------(7)---(7)------||


   Verse
   9/8            12/8            9/8            12/8
    H.      E Q    W.              H.      E Q    W.
||---------------|---------------|--------------|--------||
||o-5------------|---------------|-5------------|-------o||
||o---------3----|---------------|---------3----|-5-----o||
||---------------|-0-------------|--------------|--------||


   Chorus
   9/8                  12/8
    E. S E E E E E E E   H.      +Q.   +E  E E
||---------------------|-----------------------|
||o--------------------|---------------------4-|
||o----------------2-3-|-5-------(5)---(5)-7---|
||--3--3-3-3-2-3-5-----|-----------------------|


 9/8                   12/8
  E S S E E E E E E E   H.      +Q.   +E  Q
|---------------------|------------------------||
|-5-5-5-5-5-4---------|-----------------------o||
|-------------7-5-7-5-|-----------------------o||
|---------------------|-7-------(7)---(7)------||


   Verse
   9/8            12/8            9/8            12/8
    H.      E Q    W.              H.      E Q    W.     4x
||---------------|---------------|--------------|--------||
||o-5------------|---------------|-5------------|-------o||
||o---------3----|---------------|---------3----|-5-----o||
||---------------|-0-------------|--------------|--------||


   Chorus
   9/8                  12/8
    E. S E E E E E E E   H.      +Q.   +E  E E
||---------------------|-----------------------|
||o--------------------|---------------------4-|
||o----------------2-3-|-5-------(5)---(5)-7---|
||--3--3-3-3-2-3-5-----|-----------------------|


  1.
 9/8                   12/8
  E S S E E E E E E E   H.      +Q.   +E  Q
|---------------------|------------------------||
|-5-5-5-5-5-4---------|-----------------------o||
|-------------7-5-7-5-|-----------------------o||
|---------------------|-7-------(7)---(7)------||


  2.
 9/8                   12/8
  E S S E E E E E E E   H.      +Q   E Q  E
|---------------------|---------------------|
|-5-5-5-5-5-4---------|---------------------|
|-------------7-5-7-5-|----------------5--7-|
|---------------------|-7-------(7)---------|


 Guitar break
 12/8
  E. S E E. S E E. S E E. S E   E. S E E. S E E. S E E. S E
|-----------------------------|-----------------------------|
|-5--5-5-5--5-5-5--5-5-5--5-5-|-5--5-5-5--5-5-5--5-5-5--5-4-|
|-----------------------------|-----------------------------|
|-----------------------------|-----------------------------|


    E. S E E. S E E. S E E. S E   E. S E E. S E E. S E E. S E
||------------------------------|------------------------------||
||o-----------------------------|-5--5-5-5--5-5-5--5-5-5--5-5-o||
||o-7--7-7-7--7-7-7--7-7-7--7-7-|-----------------------------o||
||------------------------------|------------------------------||


  E. S E E. S E E. S E E. S E   E. S E Q  E E. S E E. S E
|-----------------------------|---------------------------|
|-----------------------------|---------------------------|
|-3--3-3-3--3-3-3--3-3-3--3-3-|-7--7-7-7--7-5--5-5-5--5-5-|
|-----------------------------|---------------------------|


  E. S E E. S E E. S E E E E   E E E E E E E Q  Q.
|----------------------------|-----------------------|
|-5--5-5-5--5-5-5--5-5-7-7-7-|-5-5-5-5-5-5-5---------|
|----------------------------|-----------------------|
|----------------------------|-----------------------|


 Guitar solo
  E. S E E. S E E. S E E. S E   E. S E E. S E E. S E E. S E
|-----------------------------|-----------------------------|
|-5--5-5-5--5-5---------------|-5--5-5-5--5-5-5--5-5-5--5-5-|
|---------------3--3-3-3--3-3-|-----------------------------|
|-----------------------------|-----------------------------|


  E. S E E. S E E. S E E. S E   E. S E E. S E E. S E E. S E
|-----------------------------|-----------------------------|
|-5--5-5-5--5-5---------------|-----------------------------|
|---------------3--3-3-3--3-3-|---------------5--5-5-5--5-5-|
|-----------------------------|-5--5-5-5--5-5---------------|


  E. S E E. S E E. S E E. S E   E. S E E. S E E. S E E. S E
|-----------------------------|-----------------------------|
|-5--5-5-5--5-5---------------|-----------------------------|
|---------------3--3-3-3--3-3-|-7--7-7-7--7-7-7--7-7-7--7-7-|
|-----------------------------|-----------------------------|


  E. S E E. S E E. S E E. S E   E. S E E S S E Q   E Q.
|-----------------------------|---------------------------|
|-5--5-5-5--5-5---------------|-5--5-5-5-5-5-5-5\---------|
|---------------3--3-3-5--5-5-|---------------------------|
|-----------------------------|---------------------------|


 Guitar duet
  E. S E E. S E E. S E E. S E   E. S E E. S E E. S E E. S E
|-----------------------------|-----------------------------|
|-----------------------------|-----------------------------|
|-7--7-7-7--7-7-7--7-7-7--7-7-|-7--7-7-7--7-7-7--7-7-7--7-7-|
|-----------------------------|-----------------------------|


  E. S E E. S E E. S E E. S E   E. S E E. S E E. S E E. S E
|-----------------------------|-----------------------------|
|-----------------------------|-----------------------------|
|-----------------------------|-----------------------------|
|-7--7-7-7--7-7-7--7-7-7--7-7-|-7--7-7-7--7-7-7--7-7-7--7-7-|


  E. S E E. S E E. S E E. S E   E. S E E. S E E. S E E. S E
|-----------------------------|-----------------------------|
|-----------------------------|-----------------------------|
|-7--7-7-7--7-7-7--7-7-7--7-7-|-7--7-7-7--7-7-7--7-7-7--7-7-|
|-----------------------------|-----------------------------|


  E. S E E. S E E. S E E. S E   E. S E E. S E E. S E E. S E
|-----------------------------|-----------------------------|
|-5--5-5-5--5-5-5--5-5-5--5-5-|-5--5-5-5--5-5-5--5-5-5--5-5-|
|-----------------------------|-----------------------------|
|-----------------------------|-----------------------------|


  E. S E E. S E E. S E E. S E   E. S E E. S E E. S E Q.
|-----------------------------|---------------------------|
|-----------------------------|---------------------------|
|-7--7-7-7--7-7-7--7-7-7--7-7-|-7--7-7-7--7-7-7--7-7-7----|
|-----------------------------|---------------------------|


  E. S E E. S E E. S E E. S E   E. S E E. S E E. S E E. S E
|-----------------------------|-----------------------------|
|-5--5-5-5--5-5-5--5-5-5--5-5-|-5--5-5-5--5-5---------------|
|-----------------------------|---------------7--7-7-7--7-7-|
|-----------------------------|-----------------------------|


  E. S E E. S E E. S E E. S E   E. S E E. S E E. S E E. S E
|-----------------------------|-----------------------------|
|-5--5-5-5--5-5---------------|-5--5-5--------5--5-5-5--5-5-|
|---------------3--3-3-3--3-3-|--------3--3-3---------------|
|-----------------------------|-----------------------------|


  E. S E E. S E E. S E E. S E   E. S E E. S E E. S E E. S E
|-----------------------------|-----------------------------|
|-5--5-5-5--5-5---------------|-5--5-5-5--5-5---------------|
|---------------3--3-3-3--3-3-|---------------7--7-7-7--7-7-|
|-----------------------------|-----------------------------|


  E. S E E. S E E. S E E. S E   E. S E E. S E E. S E E E E
|-----------------------------|----------------------------|
|-5--5-5-5--5-5---------------|-5--5-5--------5--5-5-5-5-5-|
|---------------3--3-3-3--3-3-|--------5--5-5--------------|
|-----------------------------|----------------------------|


    E. S E E. S E E. S E E. S E   E. S E E. S E E. S E E. S E
||------------------------------|-----------------------------|
||o-----------------------------|-5--5-5--------5--5-5-7--7-7-|
||o-5--5-5-5--5-5-5--5-5-5--5-5-|--------5--5-5---------------|
||------------------------------|-----------------------------|

[ Tab from: http://www.guitartabs.cc/tabs/t/thin_lizzy/rosin_dubh_black_rose_a_rock_legend_btab.html ]
  E. S E E. S E E. S E E. S E   E. S E E. S E E. S E   Q.
|-----------------------------|-----------------------------|
|-----------------------------|-5--5-5-4--4-4---------------|
|-5--5-5-5--5-5-5--5-5-5--5-5-|---------------7--7-7-/12----|
|-----------------------------|-----------------------------|


  E. S E E. S E E. S E E. S E   E. S E E. S E E. S E Q.
|-----------------------------|---------------------------|
|-----------------------------|---------------------------|
|-5--5-5-5--5-5-5--5-5-5--5-5-|-3--3-3-3--3-3-3--3-3-3----|
|-----------------------------|---------------------------|


  E. S E E. S E E. S E E. S E   E. S E E. S E E. S E Q.
|-----------------------------|----------------------------||
|---------------4--4-4-5--5-5-|---------------------------o||
|-5--5-5-7--7-7---------------|-5--5-5--------5--5-5-5----o||
|-----------------------------|--------5--5-5--------------||


  E. S E E. S E E. S E E. S E   E. S E E. S E H.
|-----------------------------|---------------------|
|---------------4--4-4-5--5-5-|---------------------|
|-5--5-5-7--7-7---------------|-5--5-5--------5-----|
|-----------------------------|--------5--5-5-------|


   Jig
   4/4
    E E H.        W     4x
||--------------|-------||
||o-------------|------o||
||o-5-----------|------o||
||--------------|-------||


    W          E E H.     4x
||-----------|------------||
||o-5--------|-----------o||
||o-3--------|-5---------o||
||-----------|------------||


    E E H.        W
||--------------|-------||
||o-------------|------o||
||o-5-----------|------o||
||--------------|-------||


    W          E E H.
||-----------|------------||
||o-5--------|-----------o||
||o-3--------|-5---------o||
||-----------|------------||


  W          W          H    H      Q  Q  Q  Q
|----------|----------|-----------|-------------|
|----------|----------|-----------|-------------|
|-3--------|----------|-3----5----|-5--------5--|
|----------|-5--------|-----------|----3--5-----|


                                                 Q.=60
                                                  12/8
  W          W          H    H      Q  Q  Q  E E   +W.
|----------|----------|-----------|--------------|--------|
|----------|----------|-----------|--------------|--------|
|-3--------|----------|-3----5----|-5--------5-5-|-(5)----|
|----------|-5--------|-----------|----3--5------|--------|


 The slow part
  Q.=60
 9/8              12/8             9/8              12/8
   H.       Q.      W.               H.       Q.      W.
|----------------:----------------:----------------:----------------:
|--5-------------:----------------:--5-------------:----------------:
|-----------3----:----------------:-----------3----:--5-------------:
|----------------:--0-------------:----------------:----------------:



                                                     Q.=93
 9/8              12/8             9/8              12/8
   H.       Q.      W.               H.       Q.      W.               +W.
|----------------:----------------:----------------|----------------|---------|
|--5-------------:----------------:--5-------------|----------------|---------|
|-----------3----:----------------:-----------3----|--5-------------|--(5)----|
|----------------:--0-------------:----------------|----------------|---------|


   Outro
   9/8                  12/8
    E. S E E E E E E E   E. S E E. S E E. S E E E E
||---------------------|----------------------------|
||o--------------------|--------------------------4-|
||o----------------2-3-|-5--5-5-5--5-5-5--5-5-5-7---|
||--3--3-3-3-2-3-5-----|----------------------------|


 9/8                  12/8
  E. S E E E E E E E   E. S E E. S E E. S E E E E
|--------------------|-------------------------------||
|-5--5-5-5-4---------|------------------------------o||
|------------7-5-7-5-|------------------------------o||
|--------------------|-7--7-7-7--7-7-7--7-7-7-7-7----||


 9/8                  12/8
  E. S E E E E E E E   E. S E E. S E E. S E E E E
|--------------------|----------------------------|
|--------------------|--------------------------4-|
|----------------2-3-|-5--5-5-5--5-5-5--5-5-5-7---|
|-3--3-3-3-2-3-5-----|----------------------------|


 9/8                  12/8
  E. S E E E E E E E   E E E E E E E E E E E E
|--------------------|----------------------------|
|-5--5-5-5-4---------|----------------------------|
|------------7-5-7-5-|---5---7-5---5---7-5--------|
|--------------------|-7---7-----7---7-----7-3----|


 9/8                  12/8
  E. S E E E E E E E   E. S E E. S E E. S E E E E
|--------------------|----------------------------|
|--------------------|--------------------------4-|
|----------------2-3-|-5--5-5-5--5-5-5--5-5-5-7---|
|-3--3-3-3-2-3-5-----|----------------------------|


 9/8                  12/8
  E. S E E E E E E E   E E E E E E E E E E E E
|--------------------|----------------------------|
|-5--5-5-5-4---------|----------------------------|
|------------7-5-7-5-|---5-7-----7----------------|
|--------------------|-7-----7-7---7-7-7-7-7-7----|


 9/8                  12/8
  E. S E E E E E E E   E E E E E E E E E E E E
|--------------------|-------------------------|
|--------------------|---4---7-----4---7-----4-|
|----------------2-3-|-5---5---5-5---5---5-7---|
|-3--3-3-3-2-3-5-----|-------------------------|


 9/8                  12/8
  E. S E E E E E E E   E E E E E E E E E E E E
|--------------------|----------------------------|
|-5--5-5-5-4---------|----------------------------|
|------------7-5-7-5-|----------------------------|
|--------------------|-7-7-7-7-7-7-7-7-7-7-7-7----|


 9/8                  12/8
  E. S E E E E E E E   E E E E. S E E E E E E E
|--------------------|--------------------------|
|--------------------|---4---7------4---7-----7-|
|----------------2-3-|-5---5----5-5---5---5-7---|
|-3--3-3-3-2-3-5-----|--------------------------|


 9/8                  12/8
  E. S E E E E E E E   E E E E E E E E E E E E
|--------------------|----------------------------|
|-5--5-5-5-4---------|----------------------------|
|------------7-5-7-5-|---5-7-------5---7----------|
|--------------------|-7-----7-7-7---7---7-7-7----|


 9/8                  12/8
  E. S E E E E E E E   E. S E E. S E E. S E E E E
|--------------------|----------------------------|
|--------------------|--------------------------4-|
|----------------2-3-|-5--5-5-5--5-5-5--5-5-5-7---|
|-3--3-3-3-2-3-5-----|----------------------------|


 9/8                  12/8
  E. S E E E E E E E   E E E E E E E E E E E E
|--------------------|----------------------------|
|-5--5-5-5-4---------|----------------------------|
|------------7-5-7-5-|---5-7---7-5-------5--------|
|--------------------|-7-----7-----7-7-7---7-7----|


 9/8                  12/8
  E. S E E E E E E E   E E E E E E E E E E E E
|--------------------|-------------------------|
|--------------------|---4---7---7---4-------7-|
|----------------2-3-|-5---5---5---5---5-5-7---|
|-3--3-3-3-2-3-5-----|-------------------------|


 9/8                  12/8
  E. S E E E E E E E   E E E E E E E E E E E E
|--------------------|----------------------------|
|-5--5-5-5-4---------|----------------------------|
|------------7-5-7-5-|----------------------------|
|--------------------|-7-7-7-7-7-7-7-7-7-7-7-7----|


   9/8                  12/8
    E. S E E E E E E E   E. S E E. S E E. S E E E E
||---------------------|----------------------------|
||o--------------------|--------------------------4-|
||o----------------2-3-|-5--5-5-5--5-5-5--5-5-5-7---|
||--3--3-3-3-2-3-5-----|----------------------------|


 9/8                  12/8
  E. S E E E E E E E   E. S E E. S E E. S E E E E
|--------------------|-------------------------------||
|-5--5-5-5-4---------|------------------------------o||
|------------7-5-7-5-|------------------------------o||
|--------------------|-7--7-7-7--7-7-7--7-7-7-7-7----||


Duration Legend
---------------
W - whole; H - half; Q - quarter; E - 8th; S - 16th; T - 32nd; X - 64th; a - acciaccatura
+ - note tied to previous; . - note dotted; .. - note double dotted
Uncapitalized letters represent notes that are staccato (1/2 duration)
Irregular groupings are notated above the duration line
Duration letters will always appear directly above the note/fret number it represents the
duration for.  Duration letters with no fret number below them represent rests.  Multi-
bar rests are notated in the form Wxn, where n is the number of bars to rest for.  Low
melody durations appear below the staff

Tablature Legend
----------------
 h   - hammer-on
 p   - pull-off
 b   - bend
 pb  - pre-bend
 r   - bend release (if no number after the r, then release immediately)
 /\  - slide into or out of (from/to "nowhere")
 s   - legato slide
 S   - shift slide
  - natural harmonic
[n]  - artificial harmonic
n(n) - tapped harmonic
 ~   - vibrato
 tr  - trill
 T   - tap
 TP  - trem. picking
 PM  - palm muting
\n/  - tremolo bar dip; n = amount to dip
 \n  - tremolo bar down
 n/  - tremolo bar up
/n\  - tremolo bar inverted dip
 =   - hold bend; also acts as connecting device for hammers/pulls
   - volume swell (louder/softer)
 x   - on rhythm slash represents muted slash
 o   - on rhythm slash represents single note slash

Misc Legend
-----------
 |  - bar
||  - double bar
||o - repeat start
o|| - repeat end
*|  - double bar (ending)
 :  - bar (freetime)
 $  - Segno
 &  - Coda
Tempo markers -  = BPM(8/16=s8/s16), where s8 = swing 8ths, s16 = swing 16ths


***************************************************************************************
* Generated using Power Tab Editor by Brad Larsen - http://powertab.guitarnetwork.org *
***************************************************************************************
Comments